999
dxflib 2.0.4.0
  0
SECTION
  2
HEADER
  9
$ACADVER
  1
AC1009
  9
$DIMASZ
 40
2.5
  9
$GRIDUNIT
 10
0.0
 20
0.0
  9
$DIMGAP
 40
0.625
  9
$SPLINESEGS
 70
8
  9
$AUPREC
 70
2
  9
$LUNITS
 70
2
  9
$DIMEXO
 40
0.625
  9
$DIMTXT
 40
2.5
  9
$GRIDMODE
 70
1
  9
$LUPREC
 70
4
  9
$DIMSTYLE
  2
Standard
  9
$PLIMMAX
 10
210.0
 20
297.0
  9
$PLIMMIN
 10
0.0
 20
0.0
  9
$DIMEXE
 40
1.25
  9
$AUNITS
 70
0
  0
ENDSEC
  0
SECTION
  2
TABLES
  0
TABLE
  2
VPORT
 70
1
  0
VPORT
  2
*Active
 70
0
 10
0.0
 20
0.0
 11
1.0
 21
1.0
 12
286.3055555555554861
 22
148.5
 13
0.0
 23
0.0
 14
10.0
 24
10.0
 15
10.0
 25
10.0
 16
0.0
 26
0.0
 36
1.0
 17
0.0
 27
0.0
 37
0.0
 40
297.0
 41
1.92798353909465
 42
50.0
 43
0.0
 44
0.0
 50
0.0
 51
0.0
 71
0
 72
100
 73
1
 74
3
 75
1
 76
1
 77
0
 78
0
  0
ENDTAB
  0
TABLE
  2
LTYPE
 70
19
  0
LTYPE
  2
CONTINUOUS
  3
Solid line
 72
65
 73
0
 40
0.0
  0
LTYPE
  2
DOT
  3
Dot . . . . . . . . . . . . . . . . . . . . . .
 72
65
 73
2
 40
6.3499999999999996
 49
0.0
 49
-6.3499999999999996
  0
LTYPE
  2
DOT2
  3
Dot (.5x) .....................................
 72
65
 73
2
 40
3.1749999999999998
 49
0.0
 49
-3.1749999999999998
  0
LTYPE
  2
DOTX2
  3
Dot (2x) .  .  .  .  .  .  .  .  .  .  .  .  .
 72
65
 73
2
 40
12.6999999999999993
 49
0.0
 49
-12.6999999999999993
  0
LTYPE
  2
DASHED
  3
Dashed __ __ __ __ __ __ __ __ __ __ __ __ __ _
 72
65
 73
2
 40
19.0500000000000007
 49
12.6999999999999993
 49
-6.3499999999999996
  0
LTYPE
  2
DASHED2
  3
Dashed (.5x) _ _ _ _ _ _ _ _ _ _ _ _ _ _ _ _ _
 72
65
 73
2
 40
9.5250000000000004
 49
6.3499999999999996
 49
-3.1749999999999998
  0
LTYPE
  2
DASHEDX2
  3
Dashed (2x) ____  ____  ____  ____  ____  ___
 72
65
 73
2
 40
38.1000000000000014
 49
25.3999999999999986
 49
-12.6999999999999993
  0
LTYPE
  2
DASHDOT
  3
Dash dot __ . __ . __ . __ . __ . __ . __ . __
 72
65
 73
4
 40
25.3999999999999986
 49
12.6999999999999993
 49
-6.3499999999999996
 49
0.0
 49
-6.3499999999999996
  0
LTYPE
  2
DASHDOT2
  3
Dash dot (.5x) _._._._._._._._._._._._._._._.
 72
65
 73
4
 40
12.6999999999999993
 49
6.3499999999999996
 49
-3.1749999999999998
 49
0.0
 49
-3.1749999999999998
  0
LTYPE
  2
DASHDOTX2
  3
Dash dot (2x) ____  .  ____  .  ____  .  ___
 72
65
 73
4
 40
50.7999999999999972
 49
25.3999999999999986
 49
-12.6999999999999993
 49
0.0
 49
-12.6999999999999993
  0
LTYPE
  2
DIVIDE
  3
Divide ____ . . ____ . . ____ . . ____ . . ____
 72
65
 73
6
 40
31.75
 49
12.6999999999999993
 49
-6.3499999999999996
 49
0.0
 49
-6.3499999999999996
 49
0.0
 49
-6.3499999999999996
  0
LTYPE
  2
DIVIDE2
  3
Divide (.5x) __..__..__..__..__..__..__..__.._
 72
65
 73
6
 40
15.875
 49
6.3499999999999996
 49
-3.1749999999999998
 49
0.0
 49
-3.1749999999999998
 49
0.0
 49
-3.1749999999999998
  0
LTYPE
  2
DIVIDEX2
  3
Divide (2x) ________  .  .  ________  .  .  _
 72
65
 73
6
 40
63.5
 49
25.3999999999999986
 49
-12.6999999999999993
 49
0.0
 49
-12.6999999999999993
 49
0.0
 49
-12.6999999999999993
  0
LTYPE
  2
CENTER
  3
Center ____ _ ____ _ ____ _ ____ _ ____ _ ____
 72
65
 73
4
 40
50.7999999999999972
 49
31.75
 49
-6.3499999999999996
 49
6.3499999999999996
 49
-6.3499999999999996
  0
LTYPE
  2
CENTER2
  3
Center (.5x) ___ _ ___ _ ___ _ ___ _ ___ _ ___
 72
65
 73
4
 40
28.5749999999999993
 49
19.0500000000000007
 49
-3.1749999999999998
 49
3.1749999999999998
 49
-3.1749999999999998
  0
LTYPE
  2
CENTERX2
  3
Center (2x) ________  __  ________  __  _____
 72
65
 73
4
 40
101.5999999999999943
 49
63.5
 49
-12.6999999999999993
 49
12.6999999999999993
 49
-12.6999999999999993
  0
LTYPE
  2
BORDER
  3
Border __ __ . __ __ . __ __ . __ __ . __ __ .
 72
65
 73
6
 40
44.4500000000000028
 49
12.6999999999999993
 49
-6.3499999999999996
 49
12.6999999999999993
 49
-6.3499999999999996
 49
0.0
 49
-6.3499999999999996
  0
LTYPE
  2
BORDER2
  3
Border (.5x) __.__.__.__.__.__.__.__.__.__.__.
 72
65
 73
6
 40
22.2250000000000014
 49
6.3499999999999996
 49
-3.1749999999999998
 49
6.3499999999999996
 49
-3.1749999999999998
 49
0.0
 49
-3.1749999999999998
  0
LTYPE
  2
BORDERX2
  3
Border (2x) ____  ____  .  ____  ____  .  ___
 72
65
 73
6
 40
88.9000000000000057
 49
25.3999999999999986
 49
-12.6999999999999993
 49
25.3999999999999986
 49
-12.6999999999999993
 49
0.0
 49
-12.6999999999999993
  0
ENDTAB
  0
TABLE
  2
LAYER
 70
1
  0
LAYER
  2
0
 70
0
 62
7
  6
CONTINUOUS
  0
ENDTAB
  0
TABLE
  2
STYLE
 70
1
  0
STYLE
  2
Standard
 70
0
 40
0.0
 41
1.0
 50
0.0
 71
0
 42
2.5
  3
txt
  4

  0
ENDTAB
  0
TABLE
  2
VIEW
 70
0
  0
ENDTAB
  0
TABLE
  2
UCS
 70
0
  0
ENDTAB
  0
TABLE
  2
APPID
 70
1
  0
APPID
  2
ACAD
 70
0
  0
ENDTAB
  0
TABLE
  2
DIMSTYLE
 70
1
  0
DIMSTYLE
  2
Standard
  3

  4

  5

  6

  7

 40
1.0
 41
2.5
 42
0.625
 43
3.75
 44
1.25
 45
0.0
 46
0.0
 47
0.0
 48
0.0
 70
0
 71
0
 72
0
 73
0
 74
0
 75
0
 76
0
 77
1
 78
8
140
2.5
141
2.5
142
0.0
143
0.03937007874016
144
1.0
145
0.0
146
1.0
147
0.625
170
0
171
3
172
1
173
0
174
0
175
0
176
0
177
0
178
0
  0
ENDTAB
  0
ENDSEC
  0
SECTION
  2
BLOCKS
  0
ENDSEC
  0
SECTION
  2
ENTITIES
  0
CIRCLE
  8
0
 10
60.0
 20
26.0
 30
0.0
 40
13.5
  0
CIRCLE
  8
0
 10
172.0
 20
26.0
 30
0.0
 40
13.5
  0
CIRCLE
  8
0
 10
116.0
 20
26.0
 30
0.0
 40
13.5
  0
CIRCLE
  8
0
 10
60.0
 20
26.0
 30
0.0
 40
2.5
  0
CIRCLE
  8
0
 10
116.0
 20
26.0
 30
0.0
 40
2.5
  0
CIRCLE
  8
0
 10
172.0
 20
26.0
 30
0.0
 40
2.5
  0
CIRCLE
  8
0
 10
204.5
 20
49.5
 30
0.0
 40
20.0
  0
CIRCLE
  8
0
 10
27.5
 20
49.5
 30
0.0
 40
20.0
  0
CIRCLE
  8
0
 10
27.5
 20
49.5
 30
0.0
 40
2.5
  0
CIRCLE
  8
0
 10
204.5
 20
49.5
 30
0.0
 40
2.5
  0
ARC
  8
0
 10
60.0
 20
26.0
 30
0.0
 40
16.0
 50
243.4572475328227483
 51
270.0
  0
ARC
  8
0
 10
171.9999999999999716
 20
26.0
 30
0.0
 40
16.0
 50
269.9999999999998863
 51
296.5427524671773085
  0
LINE
  8
0
 10
60.0
 20
12.5
 30
0.0
 11
171.9999999999999432
 21
12.5
 31
0.0
  0
LINE
  8
0
 10
213.437309263653475
 20
31.6079765502664785
 30
0.0
 11
178.0326837529660509
 21
13.9228841714298675
 31
0.0
  0
LINE
  8
0
 10
18.5626907363465392
 20
31.6079765502664856
 30
0.0
 11
53.9673162470339136
 21
13.9228841714298781
 31
0.0
  0
LINE
  8
0
 10
27.5000000000000036
 20
69.5
 30
0.0
 11
204.5
 21
69.5
 31
0.0
  0
ARC
  8
0
 10
27.5000000000000036
 20
49.5
 30
0.0
 40
20.0
 50
90.0
 51
243.4572475328226915
  0
LINE
  8
0
 10
214.55447292161017
 20
29.3714736190497909
 30
0.0
 11
179.1498474109227459
 21
11.6863812402131835
 31
0.0
  0
ARC
  8
0
 10
204.5000000000000284
 20
49.5
 30
0.0
 40
22.5
 50
296.5427524671772517
 51
90.0
  0
LINE
  8
0
 10
204.5
 20
132.0
 30
0.0
 11
169.5
 21
132.0
 31
0.0
  0
LINE
  8
0
 10
320.0
 20
72.0
 30
0.0
 11
340.5
 21
72.0
 31
0.0
  0
LINE
  8
0
 10
531.0
 20
72.0
 30
0.0
 11
510.5
 21
72.0
 31
0.0
  0
LINE
  8
0
 10
510.5
 20
10.0
 30
0.0
 11
531.0
 21
10.0
 31
0.0
  0
LINE
  8
0
 10
27.5
 20
72.0
 30
0.0
 11
204.5000000000000284
 21
72.0
 31
0.0
  0
LINE
  8
0
 10
17.4455270783898513
 20
29.371473619049798
 30
0.0
 11
52.8501525890772328
 21
11.686381240213187
 31
0.0
  0
ARC
  8
0
 10
27.5
 20
49.5
 30
0.0
 40
22.5
 50
90.0
 51
243.4572475328226915
  0
LINE
  8
0
 10
223.5
 20
-354.5
 30
0.0
 11
223.5
 21
-331.0
 31
0.0
  0
LINE
  8
0
 10
223.5
 20
-331.0
 30
0.0
 11
216.5
 21
-331.0
 31
0.0
  0
LINE
  8
0
 10
15.0
 20
-214.5
 30
0.0
 11
103.0
 21
-214.5
 31
0.0
  0
LINE
  8
0
 10
103.0
 20
-334.5
 30
0.0
 11
15.0
 21
-334.5
 31
0.0
  0
LINE
  8
0
 10
47.0
 20
-238.5
 30
0.0
 11
103.0
 21
-238.5
 31
0.0
  0
LINE
  8
0
 10
47.0
 20
83.0
 30
0.0
 11
15.0
 21
83.0
 31
0.0
  0
LINE
  8
0
 10
47.0
 20
99.0
 30
0.0
 11
47.0
 21
83.0
 31
0.0
  0
LINE
  8
0
 10
47.0
 20
-310.5
 30
0.0
 11
47.0
 21
-238.5
 31
0.0
  0
LINE
  8
0
 10
103.0
 20
102.0
 30
0.0
 11
183.0
 21
102.0
 31
0.0
  0
LINE
  8
0
 10
103.0
 20
99.0
 30
0.0
 11
47.0
 21
99.0
 31
0.0
  0
LINE
  8
0
 10
5.0
 20
-189.5
 30
0.0
 11
5.0
 21
-169.0
 31
0.0
  0
LINE
  8
0
 10
103.0
 20
-189.5
 30
0.0
 11
5.0
 21
-189.5
 31
0.0
  0
LINE
  8
0
 10
103.0
 20
-359.5
 30
0.0
 11
5.0
 21
-359.5
 31
0.0
  0
LINE
  8
0
 10
227.0
 20
-169.0
 30
0.0
 11
227.0
 21
-189.5
 31
0.0
  0
LINE
  8
0
 10
227.0
 20
-380.0
 30
0.0
 11
227.0
 21
-359.5
 31
0.0
  0
LINE
  8
0
 10
227.0
 20
-189.5
 30
0.0
 11
183.0
 21
-189.5
 31
0.0
  0
LINE
  8
0
 10
227.0
 20
-359.5
 30
0.0
 11
183.0
 21
-359.5
 31
0.0
  0
LINE
  8
0
 10
103.0
 20
-189.5
 30
0.0
 11
5.0
 21
-189.5
 31
0.0
  0
LINE
  8
0
 10
334.0
 20
77.0
 30
0.0
 11
340.5
 21
77.0
 31
0.0
  0
LINE
  8
0
 10
340.5
 20
77.0
 30
0.0
 11
340.5
 21
10.0
 31
0.0
  0
LINE
  8
0
 10
517.0
 20
77.0
 30
0.0
 11
510.5
 21
77.0
 31
0.0
  0
LINE
  8
0
 10
103.0
 20
-183.0
 30
0.0
 11
183.0
 21
-183.0
 31
0.0
  0
LINE
  8
0
 10
365.5
 20
83.0
 30
0.0
 11
485.5
 21
83.0
 31
0.0
  0
LINE
  8
0
 10
389.5
 20
99.0
 30
0.0
 11
461.5
 21
99.0
 31
0.0
  0
LINE
  8
0
 10
437.25
 20
102.0
 30
0.0
 11
517.0
 21
102.0
 31
0.0
  0
LINE
  8
0
 10
510.5
 20
77.0
 30
0.0
 11
510.5
 21
10.0
 31
0.0
  0
LINE
  8
0
 10
334.0
 20
77.0
 30
0.0
 11
334.0
 21
102.0
 31
0.0
  0
LINE
  8
0
 10
389.5
 20
83.0
 30
0.0
 11
389.5
 21
99.0
 31
0.0
  0
LINE
  8
0
 10
461.5
 20
99.0
 30
0.0
 11
461.5
 21
83.0
 31
0.0
  0
LINE
  8
0
 10
517.0
 20
102.0
 30
0.0
 11
517.0
 21
77.0
 31
0.0
  0
LINE
  8
0
 10
320.0
 20
10.0
 30
0.0
 11
320.0
 21
72.0
 31
0.0
  0
LINE
  8
0
 10
531.0
 20
10.0
 30
0.0
 11
531.0
 21
72.0
 31
0.0
  0
LINE
  8
0
 10
5.0
 20
-169.0
 30
0.0
 11
227.0
 21
-169.0
 31
0.0
  0
LINE
  8
0
 10
392.0
 20
99.0
 30
0.0
 11
392.0
 21
132.0
 31
0.0
  0
LINE
  8
0
 10
392.0
 20
132.0
 30
0.0
 11
427.0
 21
132.0
 31
0.0
  0
LINE
  8
0
 10
334.0
 20
102.0
 30
0.0
 11
392.0
 21
102.0
 31
0.0
  0
LINE
  8
0
 10
169.5
 20
132.0
 30
0.0
 11
169.5
 21
123.0
 31
0.0
  0
LINE
  8
0
 10
204.5
 20
123.0
 30
0.0
 11
204.5
 21
132.0
 31
0.0
  0
CIRCLE
  8
0
 10
187.0
 20
-258.5
 30
0.0
 40
17.5
  0
LINE
  8
0
 10
183.0
 20
-183.0
 30
0.0
 11
183.0
 21
-241.4632749625992005
 31
0.0
  0
LINE
  8
0
 10
183.0
 20
-286.25
 30
0.0
 11
183.0
 21
-366.0
 31
0.0
  0
LINE
  8
0
 10
112.0
 20
123.0
 30
0.0
 11
112.0
 21
102.0
 31
0.0
  0
CIRCLE
  8
0
 10
805.0
 20
25.9999999999999893
 30
0.0
 40
13.5
  0
CIRCLE
  8
0
 10
693.0
 20
26.0000000000000284
 30
0.0
 40
13.5
  0
CIRCLE
  8
0
 10
749.0
 20
26.0
 30
0.0
 40
13.5
  0
CIRCLE
  8
0
 10
749.0
 20
26.0
 30
0.0
 40
2.5
  0
CIRCLE
  8
0
 10
837.5
 20
49.4999999999999929
 30
0.0
 40
20.0
  0
CIRCLE
  8
0
 10
837.5
 20
49.4999999999999929
 30
0.0
 40
2.5
  0
CIRCLE
  8
0
 10
660.5
 20
49.5000000000000071
 30
0.0
 40
2.5
  0
ARC
  8
0
 10
805.0
 20
25.9999999999999893
 30
0.0
 40
16.0
 50
270.0
 51
296.5427524671772517
  0
ARC
  8
0
 10
693.0
 20
26.0000000000000284
 30
0.0
 40
16.0
 50
243.4572475328226915
 51
270.0000000000001137
  0
LINE
  8
0
 10
805.0
 20
12.5000000000000639
 30
0.0
 11
693.0
 21
12.4999999999999929
 31
0.0
  0
LINE
  8
0
 10
651.5626907363465534
 20
31.6079765502664998
 30
0.0
 11
686.9673162470339776
 21
13.9228841714298621
 31
0.0
  0
LINE
  8
0
 10
846.4373092636534466
 20
31.6079765502664536
 30
0.0
 11
811.0326837529661361
 21
13.922884171429919
 31
0.0
  0
LINE
  8
0
 10
837.5
 20
69.4999999999999716
 30
0.0
 11
660.5
 21
69.5
 31
0.0
  0
LINE
  8
0
 10
650.4455270783898868
 20
29.3714736190498016
 30
0.0
 11
685.8501525890771973
 21
11.6863812402131941
 31
0.0
  0
LINE
  8
0
 10
850.0
 20
82.9999999999999858
 30
0.0
 11
850.0
 21
68.2082869338696867
 31
0.0
  0
LINE
  8
0
 10
837.5
 20
71.9999999999999716
 30
0.0
 11
660.5
 21
72.0000000000000284
 31
0.0
  0
LINE
  8
0
 10
847.5544729216101132
 20
29.3714736190498122
 30
0.0
 11
812.1498474109228027
 21
11.6863812402133576
 31
0.0
  0
ARC
  8
0
 10
837.5
 20
49.4999999999999929
 30
0.0
 40
22.5
 50
296.5427524671773654
 51
90.0
  0
LINE
  8
0
 10
818.0
 20
83.0
 30
0.0
 11
850.0
 21
82.9999999999999858
 31
0.0
  0
LINE
  8
0
 10
818.0
 20
98.9999999999999858
 30
0.0
 11
818.0
 21
83.0
 31
0.0
  0
LINE
  8
0
 10
762.0
 20
98.9999999999999858
 30
0.0
 11
818.0
 21
98.9999999999999858
 31
0.0
  0
LINE
  8
0
 10
753.0
 20
123.0
 30
0.0
 11
753.0
 21
102.0
 31
0.0
  0
LINE
  8
0
 10
805.0
 20
10.0
 30
0.0
 11
693.0
 21
10.0
 31
0.0
  0
LINE
  8
0
 10
695.5
 20
132.0
 30
0.0
 11
695.5
 21
102.0000000000000142
 31
0.0
  0
LINE
  8
0
 10
660.5
 20
132.0
 30
0.0
 11
695.5
 21
132.0
 31
0.0
  0
LINE
  8
0
 10
682.0
 20
102.0
 30
0.0
 11
682.0
 21
72.0000000000000142
 31
0.0
  0
LINE
  8
0
 10
660.5
 20
93.0
 30
0.0
 11
660.5
 21
132.0
 31
0.0
  0
LINE
  8
0
 10
695.5
 20
123.0
 30
0.0
 11
753.0
 21
123.0
 31
0.0
  0
LINE
  8
0
 10
340.5
 20
10.0
 30
0.0
 11
320.0
 21
10.0
 31
0.0
  0
LINE
  8
0
 10
437.25
 20
123.0
 30
0.0
 11
437.25
 21
99.0
 31
0.0
  0
LINE
  8
0
 10
413.75
 20
123.0
 30
0.0
 11
413.75
 21
99.0
 31
0.0
  0
LINE
  8
0
 10
531.0
 20
-248.0
 30
0.0
 11
510.5000000000000568
 21
-248.0000000000000284
 31
0.0
  0
LINE
  8
0
 10
320.0
 20
-248.0
 30
0.0
 11
340.5000000000000568
 21
-247.9999999999999716
 31
0.0
  0
LINE
  8
0
 10
340.5
 20
-310.0
 30
0.0
 11
320.0
 21
-310.0
 31
0.0
  0
LINE
  8
0
 10
517.0
 20
-243.0000000000000568
 30
0.0
 11
510.5
 21
-243.0000000000000284
 31
0.0
  0
LINE
  8
0
 10
334.0
 20
-243.0
 30
0.0
 11
340.5
 21
-243.0
 31
0.0
  0
LINE
  8
0
 10
413.75
 20
-218.0
 30
0.0
 11
334.0
 21
-218.0000000000000284
 31
0.0
  0
LINE
  8
0
 10
517.0
 20
-243.0000000000000568
 30
0.0
 11
517.0
 21
-218.0000000000000284
 31
0.0
  0
LINE
  8
0
 10
334.0
 20
-218.0000000000000284
 30
0.0
 11
334.0
 21
-243.0
 31
0.0
  0
LINE
  8
0
 10
531.0
 20
-310.0
 30
0.0
 11
531.0
 21
-248.0
 31
0.0
  0
LINE
  8
0
 10
320.0
 20
-310.0
 30
0.0
 11
320.0
 21
-248.0
 31
0.0
  0
LINE
  8
0
 10
424.0000000000000568
 20
-188.0
 30
0.0
 11
424.0000000000000568
 21
-197.0
 31
0.0
  0
LINE
  8
0
 10
510.5
 20
-310.0
 30
0.0
 11
531.0
 21
-310.0
 31
0.0
  0
LINE
  8
0
 10
200.4050000000000011
 20
-247.25
 30
0.0
 11
216.5
 21
-247.25
 31
0.0
  0
LINE
  8
0
 10
459.0
 20
-188.0
 30
0.0
 11
424.0
 21
-188.0
 31
0.0
  0
LINE
  8
0
 10
459.0
 20
-229.5
 30
0.0
 11
459.0
 21
-188.0
 31
0.0
  0
LINE
  8
0
 10
216.5
 20
-218.0
 30
0.0
 11
223.5
 21
-218.0
 31
0.0
  0
LINE
  8
0
 10
505.5
 20
-284.5
 30
0.0
 11
482.0
 21
-284.5
 31
0.0
  0
LINE
  8
0
 10
340.5
 20
-243.0
 30
0.0
 11
340.5
 21
-310.0
 31
0.0
  0
LINE
  8
0
 10
369.0
 20
-284.5
 30
0.0
 11
345.5
 21
-284.5
 31
0.0
  0
LINE
  8
0
 10
389.5
 20
-268.5
 30
0.0
 11
389.5
 21
-291.0
 31
0.0
  0
LINE
  8
0
 10
461.5
 20
-268.5
 30
0.0
 11
389.5
 21
-268.5
 31
0.0
  0
LINE
  8
0
 10
461.5
 20
-291.0
 30
0.0
 11
461.5
 21
-268.5
 31
0.0
  0
LINE
  8
0
 10
482.0
 20
-291.0
 30
0.0
 11
482.0
 21
-261.0
 31
0.0
  0
LINE
  8
0
 10
369.0
 20
-261.0
 30
0.0
 11
369.0
 21
-291.0
 31
0.0
  0
LINE
  8
0
 10
459.0
 20
-229.5
 30
0.0
 11
431.5
 21
-229.5
 31
0.0
  0
LINE
  8
0
 10
424.0
 20
-250.0
 30
0.0
 11
424.0
 21
-220.5
 31
0.0
  0
LINE
  8
0
 10
510.5
 20
-243.0
 30
0.0
 11
510.5
 21
-310.0
 31
0.0
  0
LINE
  8
0
 10
431.5
 20
-250.0
 30
0.0
 11
431.5
 21
-220.5
 31
0.0
  0
LINE
  8
0
 10
452.75
 20
-197.0
 30
0.0
 11
452.75
 21
-220.5
 31
0.0
  0
LINE
  8
0
 10
682.0
 20
93.0
 30
0.0
 11
660.5
 21
93.0
 31
0.0
  0
LINE
  8
0
 10
431.5
 20
-220.5
 30
0.0
 11
452.75
 21
-220.5
 31
0.0
  0
LINE
  8
0
 10
648.5
 20
123.0
 30
0.0
 11
660.5
 21
123.0
 31
0.0
  0
LINE
  8
0
 10
660.5
 20
99.5
 30
0.0
 11
648.5
 21
99.5
 31
0.0
  0
LINE
  8
0
 10
216.5
 20
99.5
 30
0.0
 11
183.0
 21
99.5
 31
0.0
  0
CIRCLE
  8
0
 10
660.5
 20
49.5
 30
0.0
 40
20.0
  0
ARC
  8
0
 10
660.5
 20
49.5
 30
0.0
 40
22.5
 50
90.0
 51
243.4570000000000221
  0
LINE
  8
0
 10
860.0
 20
-359.5
 30
0.0
 11
860.0
 21
-380.0
 31
0.0
  0
LINE
  8
0
 10
641.5
 20
-354.5
 30
0.0
 11
641.5
 21
-330.9999999999999432
 31
0.0
  0
LINE
  8
0
 10
860.0
 20
-189.4999999999999716
 30
0.0
 11
860.0
 21
-169.0000000000000284
 31
0.0
  0
LINE
  8
0
 10
638.0000000000001137
 20
-168.9999999999999716
 30
0.0
 11
638.0
 21
-189.4999999999999716
 31
0.0
  0
LINE
  8
0
 10
638.0
 20
-380.0
 30
0.0
 11
638.0
 21
-359.4999999999999432
 31
0.0
  0
LINE
  8
0
 10
698.0
 20
-238.5
 30
0.0
 11
648.5
 21
-238.5
 31
0.0
  0
LINE
  8
0
 10
648.5
 20
-310.5
 30
0.0
 11
698.0
 21
-310.5
 31
0.0
  0
LINE
  8
0
 10
698.0
 20
-238.5
 30
0.0
 11
698.0
 21
-310.5
 31
0.0
  0
LINE
  8
0
 10
667.5
 20
-238.5
 30
0.0
 11
667.5
 21
-217.9999999999999716
 31
0.0
  0
LINE
  8
0
 10
682.0
 20
-217.9999999999999716
 30
0.0
 11
641.5
 21
-217.9999999999999716
 31
0.0
  0
LINE
  8
0
 10
641.5
 20
-330.9999999999999432
 30
0.0
 11
682.0
 21
-331.0000000000002842
 31
0.0
  0
LINE
  8
0
 10
365.5
 20
51.5
 30
0.0
 11
365.5
 21
83.0
 31
0.0
  0
LINE
  8
0
 10
485.5
 20
83.0
 30
0.0
 11
485.5
 21
51.5
 31
0.0
  0
LINE
  8
0
 10
485.5
 20
51.5
 30
0.0
 11
510.5
 21
51.5
 31
0.0
  0
LINE
  8
0
 10
641.5
 20
-194.5
 30
0.0
 11
682.0
 21
-194.5
 31
0.0
  0
LINE
  8
0
 10
682.0
 20
-354.4999999999996589
 30
0.0
 11
641.5
 21
-354.5
 31
0.0
  0
LINE
  8
0
 10
682.0
 20
-331.0000000000002842
 30
0.0
 11
682.0
 21
-359.4999999999999432
 31
0.0
  0
LINE
  8
0
 10
667.5
 20
-331.0
 30
0.0
 11
667.5
 21
-310.5
 31
0.0
  0
CIRCLE
  8
0
 10
805.0
 20
26.0
 30
0.0
 40
2.5
  0
LINE
  8
0
 10
860.0
 20
-169.0
 30
0.0
 11
638.0
 21
-169.0
 31
0.0
  0
LINE
  8
0
 10
638.0
 20
-189.5
 30
0.0
 11
860.0
 21
-189.5
 31
0.0
  0
LINE
  8
0
 10
638.0
 20
-359.5
 30
0.0
 11
860.0
 21
-359.5
 31
0.0
  0
LINE
  8
0
 10
638.0
 20
-380.0
 30
0.0
 11
860.0
 21
-380.0
 31
0.0
  0
CIRCLE
  8
0
 10
693.0
 20
26.0
 30
0.0
 40
2.5
  0
LINE
  8
0
 10
805.0
 20
-169.0
 30
0.0
 11
805.0
 21
-189.5
 31
0.0
  0
LINE
  8
0
 10
805.0
 20
-380.0
 30
0.0
 11
805.0
 21
-359.5
 31
0.0
  0
LINE
  8
0
 10
693.0
 20
-359.5
 30
0.0
 11
693.0
 21
-380.0
 31
0.0
  0
LINE
  8
0
 10
216.5
 20
-359.5
 30
0.0
 11
216.5
 21
-189.5
 31
0.0
  0
LINE
  8
0
 10
216.5
 20
-354.5
 30
0.0
 11
223.5
 21
-354.5
 31
0.0
  0
LINE
  8
0
 10
223.5
 20
-194.5
 30
0.0
 11
216.5
 21
-194.5
 31
0.0
  0
LINE
  8
0
 10
431.5
 20
-250.0
 30
0.0
 11
510.5
 21
-250.0
 31
0.0
  0
LINE
  8
0
 10
345.5
 20
-284.5
 30
0.0
 11
345.5
 21
-261.0
 31
0.0
  0
LINE
  8
0
 10
482.0
 20
-261.0
 30
0.0
 11
505.5
 21
-261.0
 31
0.0
  0
LINE
  8
0
 10
505.5
 20
-261.0
 30
0.0
 11
505.5
 21
-284.5
 31
0.0
  0
LINE
  8
0
 10
389.5
 20
-276.0
 30
0.0
 11
369.0
 21
-276.0
 31
0.0
  0
LINE
  8
0
 10
345.5
 20
-276.0
 30
0.0
 11
340.5
 21
-276.0
 31
0.0
  0
LINE
  8
0
 10
505.5
 20
-276.0
 30
0.0
 11
510.5
 21
-276.0
 31
0.0
  0
LINE
  8
0
 10
682.0
 20
-189.5
 30
0.0
 11
682.0
 21
-218.0
 31
0.0
  0
LINE
  8
0
 10
648.5
 20
-189.5
 30
0.0
 11
648.5
 21
-194.5
 31
0.0
  0
LINE
  8
0
 10
103.0
 20
77.0
 30
0.0
 11
183.0
 21
77.0
 31
0.0
  0
LINE
  8
0
 10
103.0
 20
83.0
 30
0.0
 11
47.0
 21
83.0
 31
0.0
  0
LINE
  8
0
 10
102.8375534189118241
 20
29.0
 30
0.0
 11
73.1624465810881901
 21
29.0
 31
0.0
  0
LINE
  8
0
 10
129.1620000000000061
 20
29.0
 30
0.0
 11
158.8379999999999939
 21
29.0
 31
0.0
  0
LINE
  8
0
 10
510.5
 20
29.0
 30
0.0
 11
340.5
 21
29.0
 31
0.0
  0
LINE
  8
0
 10
762.0
 20
83.0
 30
0.0
 11
818.0
 21
83.0
 31
0.0
  0
LINE
  8
0
 10
762.1624465810881475
 20
29.0
 30
0.0
 11
791.8375534189118525
 21
29.0
 31
0.0
  0
LINE
  8
0
 10
762.0
 20
77.0
 30
0.0
 11
682.0
 21
77.0
 31
0.0
  0
LINE
  8
0
 10
735.8375534189118525
 20
29.0
 30
0.0
 11
706.1624465810881475
 21
29.0
 31
0.0
  0
LINE
  8
0
 10
831.0
 20
29.0
 30
0.0
 11
818.1624465810881475
 21
29.0
 31
0.0
  0
LINE
  8
0
 10
832.4531658927558055
 20
30.1472362311230277
 30
0.0
 11
831.0
 21
29.0
 31
0.0
  0
LINE
  8
0
 10
831.0
 20
-189.5
 30
0.0
 11
831.0
 21
-359.5
 31
0.0
  0
LINE
  8
0
 10
850.0
 20
-189.5
 30
0.0
 11
850.0
 21
-359.5
 31
0.0
  0
LINE
  8
0
 10
15.0
 20
83.0
 30
0.0
 11
15.0
 21
70.0
 31
0.0
  0
LINE
  8
0
 10
34.0
 20
29.0
 30
0.0
 11
46.837553418911817
 21
29.0
 31
0.0
  0
LINE
  8
0
 10
32.546834107244166
 20
30.1472362311230313
 30
0.0
 11
34.0
 21
29.0
 31
0.0
  0
LINE
  8
0
 10
517.0
 20
-218.0
 30
0.0
 11
459.0
 21
-218.0
 31
0.0
  0
LINE
  8
0
 10
762.0
 20
102.0
 30
0.0
 11
682.0
 21
102.0
 31
0.0
  0
LINE
  8
0
 10
461.5
 20
-276.0
 30
0.0
 11
482.0
 21
-276.0
 31
0.0
  0
LINE
  8
0
 10
648.5
 20
70.0
 30
0.0
 11
648.5
 21
123.0
 31
0.0
  0
LINE
  8
0
 10
648.5
 20
70.0
 30
0.0
 11
651.2263815045042747
 21
70.0
 31
0.0
  0
LINE
  8
0
 10
682.0
 20
44.0
 30
0.0
 11
682.0
 21
33.8262379212492874
 31
0.0
  0
LINE
  8
0
 10
679.7288845230293646
 20
44.0
 30
0.0
 11
682.0
 21
44.0
 31
0.0
  0
LINE
  8
0
 10
667.5
 20
29.0
 30
0.0
 11
665.9190246037869656
 21
30.2481384706945313
 31
0.0
  0
LINE
  8
0
 10
648.5
 20
70.0
 30
0.0
 11
648.5
 21
68.5328663106742795
 31
0.0
  0
LINE
  8
0
 10
682.0
 20
35.5
 30
0.0
 11
674.782856857085676
 21
35.5
 31
0.0
  0
LINE
  8
0
 10
216.5
 20
68.5328999999999979
 30
0.0
 11
216.5
 21
123.0
 31
0.0
  0
LINE
  8
0
 10
197.5
 20
29.0
 30
0.0
 11
185.1624465810881759
 21
29.0
 31
0.0
  0
LINE
  8
0
 10
183.0
 20
33.8262379212492661
 30
0.0
 11
183.0
 21
44.0
 31
0.0
  0
LINE
  8
0
 10
183.0
 20
44.0
 30
0.0
 11
185.2711154769705786
 21
44.0
 31
0.0
  0
LINE
  8
0
 10
199.0809753962130628
 20
30.2481384706945278
 30
0.0
 11
197.5
 21
29.0
 31
0.0
  0
LINE
  8
0
 10
183.0
 20
35.5
 30
0.0
 11
190.2171431429142956
 21
35.5
 31
0.0
  0
LINE
  8
0
 10
340.5
 20
51.5
 30
0.0
 11
365.5
 21
51.5
 31
0.0
  0
LINE
  8
0
 10
340.5
 20
44.0
 30
0.0
 11
510.5
 21
44.0
 31
0.0
  0
LINE
  8
0
 10
15.0
 20
83.0
 30
0.0
 11
15.0
 21
68.2082999999999942
 31
0.0
  0
LINE
  8
0
 10
103.0
 20
72.0
 30
0.0
 11
103.0
 21
102.0
 31
0.0
  0
LINE
  8
0
 10
183.0
 20
102.0
 30
0.0
 11
183.0
 21
72.0
 31
0.0
  0
LINE
  8
0
 10
213.7736184954957253
 20
70.0
 30
0.0
 11
216.5
 21
70.0
 31
0.0
  0
LINE
  8
0
 10
103.0
 20
69.5
 30
0.0
 11
103.0
 21
51.5
 31
0.0
  0
LINE
  8
0
 10
47.3997487421324024
 20
51.5
 30
0.0
 11
103.0
 21
51.5
 31
0.0
  0
LINE
  8
0
 10
762.0
 20
72.0
 30
0.0
 11
762.0
 21
102.0
 31
0.0
  0
LINE
  8
0
 10
762.0
 20
51.5
 30
0.0
 11
817.600251257867626
 21
51.5
 31
0.0
  0
LINE
  8
0
 10
762.0
 20
51.5
 30
0.0
 11
762.0
 21
69.4999999999999858
 31
0.0
  0
LINE
  8
0
 10
204.5
 20
422.0
 30
0.0
 11
169.5
 21
422.0
 31
0.0
  0
LINE
  8
0
 10
47.0
 20
373.0
 30
0.0
 11
15.0
 21
373.0
 31
0.0
  0
LINE
  8
0
 10
47.0
 20
389.0
 30
0.0
 11
47.0
 21
373.0
 31
0.0
  0
LINE
  8
0
 10
103.0
 20
392.0
 30
0.0
 11
183.0
 21
392.0
 31
0.0
  0
LINE
  8
0
 10
183.0
 20
392.0
 30
0.0
 11
183.0
 21
392.0
 31
0.0
  0
LINE
  8
0
 10
103.0
 20
373.0
 30
0.0
 11
103.0
 21
373.0
 31
0.0
  0
LINE
  8
0
 10
103.0
 20
373.0
 30
0.0
 11
103.0
 21
373.0
 31
0.0
  0
LINE
  8
0
 10
103.0
 20
389.0
 30
0.0
 11
47.0
 21
389.0
 31
0.0
  0
LINE
  8
0
 10
169.5
 20
422.0
 30
0.0
 11
169.5
 21
413.0
 31
0.0
  0
LINE
  8
0
 10
204.5
 20
413.0
 30
0.0
 11
204.5
 21
422.0
 31
0.0
  0
LINE
  8
0
 10
216.5
 20
389.5
 30
0.0
 11
183.0
 21
389.5
 31
0.0
  0
LINE
  8
0
 10
103.0
 20
367.0
 30
0.0
 11
183.0
 21
367.0
 31
0.0
  0
LINE
  8
0
 10
103.0
 20
373.0
 30
0.0
 11
47.0
 21
373.0
 31
0.0
  0
LINE
  8
0
 10
15.0
 20
373.0
 30
0.0
 11
15.0
 21
360.0
 31
0.0
  0
LINE
  8
0
 10
103.0
 20
341.5
 30
0.0
 11
103.0
 21
392.0
 31
0.0
  0
LINE
  8
0
 10
183.0
 20
319.0
 30
0.0
 11
183.0
 21
334.0
 31
0.0
  0
LINE
  8
0
 10
183.0
 20
392.0
 30
0.0
 11
183.0
 21
360.0
 31
0.0
  0
LINE
  8
0
 10
183.0
 20
360.0
 30
0.0
 11
216.5
 21
360.0
 31
0.0
  0
LINE
  8
0
 10
205.7333333333332916
 20
325.5
 30
0.0
 11
197.5
 21
319.0
 31
0.0
  0
LINE
  8
0
 10
15.0
 20
341.5
 30
0.0
 11
103.0
 21
341.5
 31
0.0
  0
LINE
  8
0
 10
15.0
 20
334.0000000000000568
 30
0.0
 11
34.0
 21
319.0
 31
0.0
  0
LINE
  8
0
 10
15.0
 20
373.0
 30
0.0
 11
15.0
 21
334.0000000000000568
 31
0.0
  0
LINE
  8
0
 10
424.0
 20
-250.0
 30
0.0
 11
340.5
 21
-250.0
 31
0.0
  0
LINE
  8
0
 10
345.5
 20
-261.0
 30
0.0
 11
369.0
 21
-261.0
 31
0.0
  0
LINE
  8
0
 10
223.5
 20
-218.0
 30
0.0
 11
223.5
 21
-194.5
 31
0.0
  0
LINE
  8
0
 10
183.0
 20
325.5
 30
0.0
 11
211.75
 21
325.5
 31
0.0
  0
LINE
  8
0
 10
216.5
 20
334.0
 30
0.0
 11
216.5
 21
413.0
 31
0.0
  0
LINE
  8
0
 10
183.0
 20
334.0
 30
0.0
 11
216.5
 21
334.0
 31
0.0
  0
LINE
  8
0
 10
679.8379999999999654
 20
29.0
 30
0.0
 11
667.5
 21
29.0
 31
0.0
  0
LINE
  8
0
 10
818.0
 20
373.0
 30
0.0
 11
850.0
 21
373.0
 31
0.0
  0
LINE
  8
0
 10
818.0
 20
389.0
 30
0.0
 11
818.0
 21
373.0
 31
0.0
  0
LINE
  8
0
 10
682.0
 20
392.0
 30
0.0
 11
682.0
 21
392.0
 31
0.0
  0
LINE
  8
0
 10
762.0
 20
373.0
 30
0.0
 11
762.0
 21
373.0
 31
0.0
  0
LINE
  8
0
 10
762.0
 20
373.0
 30
0.0
 11
762.0
 21
373.0
 31
0.0
  0
LINE
  8
0
 10
762.0
 20
389.0
 30
0.0
 11
818.0
 21
389.0
 31
0.0
  0
LINE
  8
0
 10
695.5
 20
422.0
 30
0.0
 11
695.5
 21
392.0
 31
0.0
  0
LINE
  8
0
 10
660.5
 20
422.0
 30
0.0
 11
695.5
 21
422.0
 31
0.0
  0
LINE
  8
0
 10
660.5
 20
383.0
 30
0.0
 11
660.5
 21
422.0
 31
0.0
  0
LINE
  8
0
 10
682.0
 20
383.0
 30
0.0
 11
660.5
 21
383.0
 31
0.0
  0
LINE
  8
0
 10
648.5
 20
413.0
 30
0.0
 11
660.5
 21
413.0
 31
0.0
  0
LINE
  8
0
 10
660.5
 20
389.5
 30
0.0
 11
648.5
 21
389.5
 31
0.0
  0
LINE
  8
0
 10
762.0
 20
373.0
 30
0.0
 11
818.0
 21
373.0
 31
0.0
  0
LINE
  8
0
 10
762.0
 20
367.0
 30
0.0
 11
682.0
 21
367.0
 31
0.0
  0
LINE
  8
0
 10
762.0
 20
392.0
 30
0.0
 11
682.0
 21
392.0
 31
0.0
  0
LINE
  8
0
 10
648.5
 20
360.0
 30
0.0
 11
648.5
 21
413.0
 31
0.0
  0
LINE
  8
0
 10
850.0
 20
373.0
 30
0.0
 11
850.0
 21
360.0
 31
0.0
  0
LINE
  8
0
 10
34.0
 20
319.0
 30
0.0
 11
183.0
 21
319.0
 31
0.0
  0
LINE
  8
0
 10
762.0
 20
341.5
 30
0.0
 11
850.0
 21
341.5
 31
0.0
  0
LINE
  8
0
 10
850.0
 20
373.0
 30
0.0
 11
850.0
 21
334.0000000000003411
 31
0.0
  0
LINE
  8
0
 10
850.0
 20
334.0000000000003411
 30
0.0
 11
831.0
 21
319.0
 31
0.0
  0
LINE
  8
0
 10
682.0
 20
319.0
 30
0.0
 11
667.5
 21
319.0
 31
0.0
  0
LINE
  8
0
 10
682.0
 20
334.0
 30
0.0
 11
682.0
 21
319.0
 31
0.0
  0
LINE
  8
0
 10
831.0
 20
319.0
 30
0.0
 11
682.0
 21
319.0
 31
0.0
  0
LINE
  8
0
 10
648.5
 20
360.0
 30
0.0
 11
682.0
 21
360.0
 31
0.0
  0
LINE
  8
0
 10
667.5
 20
319.0
 30
0.0
 11
659.2666666666668789
 21
325.5
 31
0.0
  0
LINE
  8
0
 10
648.5
 20
-331.0
 30
0.0
 11
648.5
 21
-218.0
 31
0.0
  0
LINE
  8
0
 10
641.5
 20
-218.0
 30
0.0
 11
641.5
 21
-194.5
 31
0.0
  0
ARC
  8
0
 10
211.75
 20
337.25
 30
0.0
 40
11.75
 50
270.0
 51
66.1555000000000035
  0
LINE
  8
0
 10
648.5
 20
334.0
 30
0.0
 11
682.0
 21
334.0
 31
0.0
  0
LINE
  8
0
 10
648.5
 20
360.0
 30
0.0
 11
648.5
 21
334.0
 31
0.0
  0
ARC
  8
0
 10
653.25
 20
337.25
 30
0.0
 40
11.75
 50
113.8444700235050391
 51
270.0
  0
LINE
  8
0
 10
682.0
 20
325.5
 30
0.0
 11
653.25
 21
325.5
 31
0.0
  0
LINE
  8
0
 10
197.5
 20
319.0
 30
0.0
 11
183.0
 21
319.0
 31
0.0
  0
LINE
  8
0
 10
340.5
 20
-291.0
 30
0.0
 11
510.5
 21
-291.0
 31
0.0
  0
LINE
  8
0
 10
334.0
 20
687.0
 30
0.0
 11
340.5
 21
687.0
 31
0.0
  0
LINE
  8
0
 10
517.0
 20
687.0
 30
0.0
 11
510.5
 21
687.0
 31
0.0
  0
LINE
  8
0
 10
365.5
 20
693.0
 30
0.0
 11
485.5
 21
693.0
 31
0.0
  0
LINE
  8
0
 10
389.5
 20
709.0
 30
0.0
 11
461.5
 21
709.0
 31
0.0
  0
LINE
  8
0
 10
437.25
 20
712.0
 30
0.0
 11
517.0
 21
712.0
 31
0.0
  0
LINE
  8
0
 10
334.0
 20
687.0
 30
0.0
 11
334.0
 21
712.0
 31
0.0
  0
LINE
  8
0
 10
389.5
 20
693.0
 30
0.0
 11
389.5
 21
709.0
 31
0.0
  0
LINE
  8
0
 10
461.5
 20
709.0
 30
0.0
 11
461.5
 21
693.0
 31
0.0
  0
LINE
  8
0
 10
517.0
 20
712.0
 30
0.0
 11
517.0
 21
687.0
 31
0.0
  0
LINE
  8
0
 10
392.0
 20
709.0
 30
0.0
 11
392.0
 21
742.0
 31
0.0
  0
LINE
  8
0
 10
392.0
 20
742.0
 30
0.0
 11
427.0
 21
742.0
 31
0.0
  0
LINE
  8
0
 10
334.0
 20
712.0
 30
0.0
 11
392.0
 21
712.0
 31
0.0
  0
LINE
  8
0
 10
437.25
 20
733.0
 30
0.0
 11
437.25
 21
709.0
 31
0.0
  0
LINE
  8
0
 10
413.75
 20
733.0
 30
0.0
 11
413.75
 21
709.0
 31
0.0
  0
LINE
  8
0
 10
517.0
 20
366.9999999999999432
 30
0.0
 11
510.5
 21
367.0
 31
0.0
  0
LINE
  8
0
 10
334.0
 20
367.0
 30
0.0
 11
340.5
 21
367.0
 31
0.0
  0
LINE
  8
0
 10
413.75
 20
392.0
 30
0.0
 11
334.0
 21
392.0
 31
0.0
  0
LINE
  8
0
 10
517.0
 20
366.9999999999999432
 30
0.0
 11
517.0
 21
392.0
 31
0.0
  0
LINE
  8
0
 10
334.0
 20
392.0
 30
0.0
 11
334.0
 21
367.0
 31
0.0
  0
LINE
  8
0
 10
424.0000000000000568
 20
422.0
 30
0.0
 11
424.0000000000000568
 21
413.0
 31
0.0
  0
LINE
  8
0
 10
459.0
 20
422.0
 30
0.0
 11
424.0
 21
422.0
 31
0.0
  0
LINE
  8
0
 10
459.0
 20
380.5
 30
0.0
 11
459.0
 21
422.0
 31
0.0
  0
LINE
  8
0
 10
505.5
 20
325.5
 30
0.0
 11
482.0
 21
325.5
 31
0.0
  0
LINE
  8
0
 10
369.0
 20
325.5
 30
0.0
 11
345.5
 21
325.5
 31
0.0
  0
LINE
  8
0
 10
389.5
 20
341.5
 30
0.0
 11
389.5
 21
319.0
 31
0.0
  0
LINE
  8
0
 10
461.5
 20
341.5
 30
0.0
 11
389.5
 21
341.5
 31
0.0
  0
LINE
  8
0
 10
461.5
 20
319.0
 30
0.0
 11
461.5
 21
341.5
 31
0.0
  0
LINE
  8
0
 10
482.0
 20
319.0
 30
0.0
 11
482.0
 21
349.0
 31
0.0
  0
LINE
  8
0
 10
369.0
 20
349.0
 30
0.0
 11
369.0
 21
319.0
 31
0.0
  0
LINE
  8
0
 10
459.0
 20
380.5
 30
0.0
 11
431.5
 21
380.5
 31
0.0
  0
LINE
  8
0
 10
424.0
 20
360.0
 30
0.0
 11
424.0
 21
389.5
 31
0.0
  0
LINE
  8
0
 10
431.5
 20
360.0
 30
0.0
 11
431.5
 21
389.5
 31
0.0
  0
LINE
  8
0
 10
452.75
 20
413.0
 30
0.0
 11
452.75
 21
389.5
 31
0.0
  0
LINE
  8
0
 10
431.5
 20
389.5
 30
0.0
 11
452.75
 21
389.5
 31
0.0
  0
LINE
  8
0
 10
365.5
 20
661.5
 30
0.0
 11
365.5
 21
693.0
 31
0.0
  0
LINE
  8
0
 10
485.5
 20
693.0
 30
0.0
 11
485.5
 21
661.5
 31
0.0
  0
LINE
  8
0
 10
485.5
 20
661.5
 30
0.0
 11
510.5
 21
661.5
 31
0.0
  0
LINE
  8
0
 10
431.5
 20
360.0
 30
0.0
 11
510.5
 21
360.0
 31
0.0
  0
LINE
  8
0
 10
345.5
 20
325.5
 30
0.0
 11
345.5
 21
349.0
 31
0.0
  0
LINE
  8
0
 10
482.0
 20
349.0
 30
0.0
 11
505.5
 21
349.0
 31
0.0
  0
LINE
  8
0
 10
505.5
 20
349.0
 30
0.0
 11
505.5
 21
325.5
 31
0.0
  0
LINE
  8
0
 10
389.5
 20
334.0
 30
0.0
 11
369.0
 21
334.0
 31
0.0
  0
LINE
  8
0
 10
345.5
 20
334.0
 30
0.0
 11
340.5
 21
334.0
 31
0.0
  0
LINE
  8
0
 10
505.5
 20
334.0
 30
0.0
 11
510.5
 21
334.0
 31
0.0
  0
LINE
  8
0
 10
517.0
 20
392.0
 30
0.0
 11
459.0
 21
392.0
 31
0.0
  0
LINE
  8
0
 10
461.5
 20
334.0
 30
0.0
 11
482.0
 21
334.0
 31
0.0
  0
LINE
  8
0
 10
340.5
 20
661.5
 30
0.0
 11
365.5
 21
661.5
 31
0.0
  0
LINE
  8
0
 10
340.5
 20
654.0
 30
0.0
 11
510.5
 21
654.0
 31
0.0
  0
LINE
  8
0
 10
424.0
 20
360.0
 30
0.0
 11
340.5
 21
360.0
 31
0.0
  0
LINE
  8
0
 10
345.5
 20
349.0
 30
0.0
 11
369.0
 21
349.0
 31
0.0
  0
LINE
  8
0
 10
340.5
 20
687.0
 30
0.0
 11
340.5
 21
639.0
 31
0.0
  0
LINE
  8
0
 10
510.5
 20
687.0
 30
0.0
 11
510.5
 21
639.0
 31
0.0
  0
LINE
  8
0
 10
510.5
 20
639.0
 30
0.0
 11
340.5
 21
639.0
 31
0.0
  0
LINE
  8
0
 10
340.5
 20
367.0
 30
0.0
 11
340.5
 21
319.0
 31
0.0
  0
LINE
  8
0
 10
340.5
 20
319.0
 30
0.0
 11
510.5
 21
319.0
 31
0.0
  0
LINE
  8
0
 10
510.5
 20
367.0
 30
0.0
 11
510.5
 21
319.0
 31
0.0
  0
LINE
  8
0
 10
648.5
 20
-354.5
 30
0.0
 11
648.5
 21
-359.5
 31
0.0
  0
LINE
  8
0
 10
641.5
 20
595.0
 30
0.0
 11
641.5
 21
618.5
 31
0.0
  0
LINE
  8
0
 10
698.0
 20
711.0
 30
0.0
 11
648.5
 21
711.0
 31
0.0
  0
LINE
  8
0
 10
648.5
 20
639.0
 30
0.0
 11
698.0
 21
639.0
 31
0.0
  0
LINE
  8
0
 10
698.0
 20
711.0
 30
0.0
 11
698.0
 21
639.0
 31
0.0
  0
LINE
  8
0
 10
667.5
 20
711.0
 30
0.0
 11
667.5
 21
731.5
 31
0.0
  0
LINE
  8
0
 10
682.0
 20
731.5
 30
0.0
 11
641.5
 21
731.5
 31
0.0
  0
LINE
  8
0
 10
641.5
 20
618.5
 30
0.0
 11
682.0
 21
618.4999999999997726
 31
0.0
  0
LINE
  8
0
 10
641.5
 20
755.0
 30
0.0
 11
682.0
 21
755.0
 31
0.0
  0
LINE
  8
0
 10
682.0
 20
595.0000000000003411
 30
0.0
 11
641.5
 21
595.0
 31
0.0
  0
LINE
  8
0
 10
667.5
 20
618.5
 30
0.0
 11
667.5
 21
639.0
 31
0.0
  0
LINE
  8
0
 10
682.0
 20
760.0
 30
0.0
 11
682.0
 21
731.5
 31
0.0
  0
LINE
  8
0
 10
831.0
 20
760.0
 30
0.0
 11
831.0
 21
590.0
 31
0.0
  0
LINE
  8
0
 10
641.5
 20
731.5
 30
0.0
 11
641.5
 21
755.0
 31
0.0
  0
LINE
  8
0
 10
850.0
 20
760.0
 30
0.0
 11
850.0
 21
590.0
 31
0.0
  0
LINE
  8
0
 10
648.5
 20
595.0
 30
0.0
 11
648.5
 21
590.0
 31
0.0
  0
LINE
  8
0
 10
648.5
 20
590.0
 30
0.0
 11
850.0
 21
590.0
 31
0.0
  0
LINE
  8
0
 10
648.5
 20
760.0
 30
0.0
 11
648.5
 21
755.0
 31
0.0
  0
LINE
  8
0
 10
648.5
 20
760.0
 30
0.0
 11
850.0
 21
760.0
 31
0.0
  0
LINE
  8
0
 10
15.0
 20
-189.5
 30
0.0
 11
15.0
 21
-359.5
 31
0.0
  0
LINE
  8
0
 10
223.5
 20
595.0
 30
0.0
 11
223.5
 21
618.5
 31
0.0
  0
LINE
  8
0
 10
223.5
 20
618.5
 30
0.0
 11
216.5
 21
618.5
 31
0.0
  0
LINE
  8
0
 10
15.0
 20
735.0
 30
0.0
 11
103.0
 21
735.0
 31
0.0
  0
LINE
  8
0
 10
103.0
 20
615.0
 30
0.0
 11
15.0
 21
615.0
 31
0.0
  0
LINE
  8
0
 10
47.0
 20
711.0
 30
0.0
 11
103.0
 21
711.0
 31
0.0
  0
LINE
  8
0
 10
47.0
 20
639.0
 30
0.0
 11
47.0
 21
711.0
 31
0.0
  0
CIRCLE
  8
0
 10
187.0
 20
691.0
 30
0.0
 40
17.5
  0
LINE
  8
0
 10
183.0
 20
766.5
 30
0.0
 11
183.0
 21
708.0367250374008563
 31
0.0
  0
LINE
  8
0
 10
200.4050000000000011
 20
702.25
 30
0.0
 11
216.5
 21
702.25
 31
0.0
  0
LINE
  8
0
 10
216.5
 20
731.5
 30
0.0
 11
223.5
 21
731.5
 31
0.0
  0
LINE
  8
0
 10
216.5
 20
595.0
 30
0.0
 11
223.5
 21
595.0
 31
0.0
  0
LINE
  8
0
 10
223.5
 20
755.0
 30
0.0
 11
216.5
 21
755.0
 31
0.0
  0
LINE
  8
0
 10
223.5
 20
731.5
 30
0.0
 11
223.5
 21
755.0
 31
0.0
  0
LINE
  8
0
 10
103.0
 20
760.0
 30
0.0
 11
15.0
 21
760.0
 31
0.0
  0
LINE
  8
0
 10
216.5
 20
760.0
 30
0.0
 11
183.0
 21
760.0
 31
0.0
  0
LINE
  8
0
 10
216.5
 20
590.0
 30
0.0
 11
183.0
 21
590.0
 31
0.0
  0
LINE
  8
0
 10
183.0
 20
663.25
 30
0.0
 11
183.0
 21
583.5
 31
0.0
  0
LINE
  8
0
 10
216.5
 20
590.0
 30
0.0
 11
216.5
 21
760.0
 31
0.0
  0
LINE
  8
0
 10
648.5
 20
618.5
 30
0.0
 11
648.5
 21
731.5
 31
0.0
  0
LINE
  8
0
 10
682.0
 20
392.0
 30
0.0
 11
682.0
 21
360.0
 31
0.0
  0
LINE
  8
0
 10
762.0
 20
341.5
 30
0.0
 11
762.0
 21
392.0
 31
0.0
  0
LINE
  8
0
 10
103.0
 20
766.5
 30
0.0
 11
183.0
 21
766.5
 31
0.0
  0
LINE
  8
0
 10
682.0
 20
766.5
 30
0.0
 11
762.0
 21
766.5
 31
0.0
  0
LINE
  8
0
 10
762.0
 20
583.5
 30
0.0
 11
682.0
 21
583.5
 31
0.0
  0
LINE
  8
0
 10
762.0
 20
583.5
 30
0.0
 11
762.0
 21
590.0
 31
0.0
  0
LINE
  8
0
 10
762.0
 20
766.5
 30
0.0
 11
762.0
 21
760.0
 31
0.0
  0
LINE
  8
0
 10
682.0
 20
760.0
 30
0.0
 11
682.0
 21
766.5
 31
0.0
  0
LINE
  8
0
 10
682.0
 20
618.4999999999997726
 30
0.0
 11
682.0
 21
583.5
 31
0.0
  0
LINE
  8
0
 10
103.0
 20
760.0
 30
0.0
 11
15.0
 21
760.0
 31
0.0
  0
LINE
  8
0
 10
15.0
 20
760.0
 30
0.0
 11
15.0
 21
590.0
 31
0.0
  0
LINE
  8
0
 10
5.0
 20
-359.5
 30
0.0
 11
5.0
 21
-380.0
 31
0.0
  0
LINE
  8
0
 10
141.4559312096257599
 20
686.75
 30
0.0
 11
170.0239138786350281
 21
686.75
 31
0.0
  0
LINE
  8
0
 10
141.4559312096257599
 20
663.25
 30
0.0
 11
216.5
 21
663.25
 31
0.0
  0
LINE
  8
0
 10
427.0
 20
742.0
 30
0.0
 11
427.0
 21
739.5
 31
0.0
  0
LINE
  8
0
 10
404.25
 20
733.0
 30
0.0
 11
446.75
 21
733.0
 31
0.0
  0
LINE
  8
0
 10
409.0
 20
733.0
 30
0.0
 11
442.0
 21
733.0
 31
0.0
  0
LINE
  8
0
 10
446.75
 20
739.5
 30
0.0
 11
404.25
 21
739.5
 31
0.0
  0
LINE
  8
0
 10
103.0
 20
766.5
 30
0.0
 11
103.0
 21
679.5825756949558354
 31
0.0
  0
LINE
  8
0
 10
103.0
 20
583.5
 30
0.0
 11
183.0
 21
583.5
 31
0.0
  0
LINE
  8
0
 10
103.0
 20
590.0
 30
0.0
 11
15.0
 21
590.0
 31
0.0
  0
LINE
  8
0
 10
103.0
 20
639.0
 30
0.0
 11
47.0
 21
639.0
 31
0.0
  0
LINE
  8
0
 10
446.75
 20
733.0
 30
0.0
 11
446.75
 21
739.5
 31
0.0
  0
LINE
  8
0
 10
404.25
 20
739.5
 30
0.0
 11
404.25
 21
733.0
 31
0.0
  0
LINE
  8
0
 10
424.0
 20
419.5
 30
0.0
 11
404.25
 21
419.5
 31
0.0
  0
LINE
  8
0
 10
404.25
 20
419.5
 30
0.0
 11
404.25
 21
413.0
 31
0.0
  0
LINE
  8
0
 10
452.75
 20
413.0
 30
0.0
 11
404.25
 21
413.0
 31
0.0
  0
LINE
  8
0
 10
424.0
 20
389.5
 30
0.0
 11
413.75
 21
389.5
 31
0.0
  0
LINE
  8
0
 10
413.75
 20
413.0
 30
0.0
 11
413.75
 21
389.5
 31
0.0
  0
LINE
  8
0
 10
427.0
 20
132.0
 30
0.0
 11
427.0
 21
129.5
 31
0.0
  0
LINE
  8
0
 10
404.25
 20
123.0
 30
0.0
 11
404.25
 21
129.5
 31
0.0
  0
LINE
  8
0
 10
404.25
 20
129.5
 30
0.0
 11
446.75
 21
129.5
 31
0.0
  0
LINE
  8
0
 10
404.25
 20
123.0
 30
0.0
 11
446.75
 21
123.0
 31
0.0
  0
LINE
  8
0
 10
446.75
 20
123.0
 30
0.0
 11
446.75
 21
129.5
 31
0.0
  0
LINE
  8
0
 10
413.7500000000000568
 20
-197.0
 30
0.0
 11
413.75
 21
-220.5
 31
0.0
  0
LINE
  8
0
 10
424.0
 20
-220.5
 30
0.0
 11
413.75
 21
-220.5
 31
0.0
  0
LINE
  8
0
 10
424.0
 20
-190.5
 30
0.0
 11
404.5
 21
-190.5
 31
0.0
  0
LINE
  8
0
 10
404.25
 20
-190.5
 30
0.0
 11
404.25
 21
-197.0
 31
0.0
  0
LINE
  8
0
 10
452.75
 20
-197.0
 30
0.0
 11
404.25
 21
-197.0
 31
0.0
  0
LINE
  8
0
 10
216.5
 20
413.0
 30
0.0
 11
102.5
 21
413.0
 31
0.0
  0
LINE
  8
0
 10
145.0
 20
419.5
 30
0.0
 11
102.5
 21
419.5
 31
0.0
  0
LINE
  8
0
 10
141.4559312096257599
 20
-262.75
 30
0.0
 11
170.0239138786350281
 21
-262.75
 31
0.0
  0
LINE
  8
0
 10
141.4559312096257599
 20
-286.25
 30
0.0
 11
216.5
 21
-286.25
 31
0.0
  0
LINE
  8
0
 10
103.0
 20
-183.0
 30
0.0
 11
103.0
 21
-269.9174243050441646
 31
0.0
  0
LINE
  8
0
 10
103.0
 20
-366.0
 30
0.0
 11
183.0
 21
-366.0
 31
0.0
  0
LINE
  8
0
 10
103.0
 20
-310.5
 30
0.0
 11
47.0
 21
-310.5
 31
0.0
  0
LINE
  8
0
 10
103.0
 20
-366.0
 30
0.0
 11
103.0
 21
-279.0825756949558354
 31
0.0
  0
LINE
  8
0
 10
102.5
 20
123.0
 30
0.0
 11
102.5
 21
129.5
 31
0.0
  0
LINE
  8
0
 10
216.5
 20
123.0
 30
0.0
 11
102.5
 21
123.0
 31
0.0
  0
LINE
  8
0
 10
145.0
 20
129.5
 30
0.0
 11
102.5
 21
129.5
 31
0.0
  0
LINE
  8
0
 10
145.0
 20
129.5
 30
0.0
 11
145.0
 21
123.0
 31
0.0
  0
CIRCLE
  8
0
 10
123.75
 20
-274.5
 30
0.0
 40
21.25
  0
CIRCLE
  8
0
 10
123.75
 20
675.0
 30
0.0
 40
21.25
  0
LINE
  8
0
 10
103.0
 20
583.5
 30
0.0
 11
103.0
 21
670.41700000000003
 31
0.0
  0
LINE
  8
0
 10
112.0
 20
413.0
 30
0.0
 11
112.0
 21
392.0
 31
0.0
  0
LINE
  8
0
 10
102.5
 20
419.5
 30
0.0
 11
102.5
 21
413.0
 31
0.0
  0
LINE
  8
0
 10
145.0
 20
413.0
 30
0.0
 11
145.0
 21
419.5
 31
0.0
  0
LINE
  8
0
 10
753.0
 20
413.0
 30
0.0
 11
753.0
 21
392.0
 31
0.0
  0
LINE
  8
0
 10
695.5
 20
413.0
 30
0.0
 11
762.5
 21
413.0
 31
0.0
  0
LINE
  8
0
 10
762.5
 20
413.0
 30
0.0
 11
762.5
 21
419.5
 31
0.0
  0
LINE
  8
0
 10
762.5
 20
419.5
 30
0.0
 11
720.0
 21
419.5
 31
0.0
  0
LINE
  8
0
 10
720.0
 20
413.0
 30
0.0
 11
720.0
 21
419.5
 31
0.0
  0
LINE
  8
0
 10
695.5
 20
123.0
 30
0.0
 11
762.5
 21
123.0
 31
0.0
  0
LINE
  8
0
 10
5.0
 20
-380.0
 30
0.0
 11
227.0
 21
-380.0
 31
0.0
  0
CIRCLE
  8
0
 10
1105.0
 20
26.0
 30
0.0
 40
13.5
  0
CIRCLE
  8
0
 10
1217.0
 20
26.0
 30
0.0
 40
13.5
  0
CIRCLE
  8
0
 10
1161.0
 20
26.0
 30
0.0
 40
13.5
  0
CIRCLE
  8
0
 10
1105.0
 20
26.0
 30
0.0
 40
2.5
  0
CIRCLE
  8
0
 10
1161.0
 20
26.0
 30
0.0
 40
2.5
  0
CIRCLE
  8
0
 10
1217.0
 20
26.0
 30
0.0
 40
2.5
  0
CIRCLE
  8
0
 10
1249.5
 20
49.5
 30
0.0
 40
20.0
  0
CIRCLE
  8
0
 10
1072.5
 20
49.5
 30
0.0
 40
20.0
  0
CIRCLE
  8
0
 10
1072.5
 20
49.5
 30
0.0
 40
2.5
  0
CIRCLE
  8
0
 10
1249.5
 20
49.5
 30
0.0
 40
2.5
  0
ARC
  8
0
 10
1105.0
 20
26.0
 30
0.0
 40
16.0
 50
243.4572475328227483
 51
270.0
  0
LINE
  8
0
 10
1105.0
 20
10.0
 30
0.0
 11
1217.0
 21
10.0
 31
0.0
  0
ARC
  8
0
 10
1217.0
 20
26.0
 30
0.0
 40
16.0
 50
269.9999999999998863
 51
296.5427524671773085
  0
ARC
  8
0
 10
1217.0
 20
26.0
 30
0.0
 40
13.5
 50
269.9999999999998863
 51
296.5427524671772517
  0
LINE
  8
0
 10
1105.0
 20
12.5
 30
0.0
 11
1217.0
 21
12.5
 31
0.0
  0
ARC
  8
0
 10
1105.0
 20
26.0
 30
0.0
 40
13.5
 50
243.4572475328226915
 51
270.0
  0
LINE
  8
0
 10
1258.4373092636535603
 20
31.6079765502664785
 30
0.0
 11
1223.0326837529660224
 21
13.9228841714298675
 31
0.0
  0
ARC
  8
0
 10
1249.5
 20
49.5
 30
0.0
 40
20.0
 50
296.5427524671773085
 51
90.0
  0
LINE
  8
0
 10
1063.5626907363464397
 20
31.6079765502664856
 30
0.0
 11
1098.9673162470339776
 21
13.9228841714298781
 31
0.0
  0
LINE
  8
0
 10
1072.5
 20
69.5
 30
0.0
 11
1249.5
 21
69.5
 31
0.0
  0
ARC
  8
0
 10
1072.5
 20
49.5
 30
0.0
 40
20.0
 50
90.0
 51
243.4572475328226915
  0
LINE
  8
0
 10
1259.5544729216101132
 20
29.3714736190497909
 30
0.0
 11
1224.1498474109228027
 21
11.6863812402131835
 31
0.0
  0
ARC
  8
0
 10
1249.5
 20
49.5
 30
0.0
 40
22.5
 50
296.5427524671772517
 51
90.0
  0
LINE
  8
0
 10
1249.5
 20
132.0
 30
0.0
 11
1214.5
 21
132.0
 31
0.0
  0
LINE
  8
0
 10
1365.0
 20
72.0
 30
0.0
 11
1385.5
 21
72.0
 31
0.0
  0
LINE
  8
0
 10
1576.0
 20
72.0
 30
0.0
 11
1555.5
 21
72.0
 31
0.0
  0
LINE
  8
0
 10
1555.5
 20
10.0
 30
0.0
 11
1576.0
 21
10.0
 31
0.0
  0
LINE
  8
0
 10
1072.5
 20
72.0
 30
0.0
 11
1249.5
 21
72.0
 31
0.0
  0
LINE
  8
0
 10
1062.4455270783898868
 20
29.371473619049798
 30
0.0
 11
1097.8501525890771973
 21
11.686381240213187
 31
0.0
  0
ARC
  8
0
 10
1072.5
 20
49.5
 30
0.0
 40
22.5
 50
90.0
 51
243.4572475328226915
  0
LINE
  8
0
 10
1268.5
 20
-354.5
 30
0.0
 11
1268.5
 21
-331.0
 31
0.0
  0
LINE
  8
0
 10
1268.5
 20
-331.0
 30
0.0
 11
1261.5
 21
-331.0
 31
0.0
  0
LINE
  8
0
 10
1060.0
 20
-214.5
 30
0.0
 11
1148.0
 21
-214.5
 31
0.0
  0
LINE
  8
0
 10
1148.0
 20
-334.5
 30
0.0
 11
1060.0
 21
-334.5
 31
0.0
  0
LINE
  8
0
 10
1092.0
 20
-238.5
 30
0.0
 11
1148.0
 21
-238.5
 31
0.0
  0
LINE
  8
0
 10
1092.0
 20
83.0
 30
0.0
 11
1060.0
 21
83.0
 31
0.0
  0
LINE
  8
0
 10
1092.0
 20
99.0
 30
0.0
 11
1092.0
 21
83.0
 31
0.0
  0
LINE
  8
0
 10
1092.0
 20
-310.5
 30
0.0
 11
1092.0
 21
-238.5
 31
0.0
  0
LINE
  8
0
 10
1148.0
 20
102.0
 30
0.0
 11
1228.0
 21
102.0
 31
0.0
  0
LINE
  8
0
 10
1228.0
 20
102.0
 30
0.0
 11
1228.0
 21
102.0
 31
0.0
  0
LINE
  8
0
 10
1148.0
 20
83.0
 30
0.0
 11
1148.0
 21
83.0
 31
0.0
  0
LINE
  8
0
 10
1148.0
 20
83.0
 30
0.0
 11
1148.0
 21
83.0
 31
0.0
  0
LINE
  8
0
 10
1148.0
 20
99.0
 30
0.0
 11
1092.0
 21
99.0
 31
0.0
  0
LINE
  8
0
 10
1050.0
 20
-189.5
 30
0.0
 11
1050.0
 21
-169.0
 31
0.0
  0
LINE
  8
0
 10
1148.0
 20
-189.5
 30
0.0
 11
1050.0
 21
-189.5
 31
0.0
  0
LINE
  8
0
 10
1148.0
 20
-359.5
 30
0.0
 11
1050.0
 21
-359.5
 31
0.0
  0
LINE
  8
0
 10
1272.0
 20
-169.0
 30
0.0
 11
1272.0
 21
-189.5
 31
0.0
  0
LINE
  8
0
 10
1272.0
 20
-380.0
 30
0.0
 11
1272.0
 21
-359.5
 31
0.0
  0
LINE
  8
0
 10
1272.0
 20
-189.5
 30
0.0
 11
1228.0
 21
-189.5
 31
0.0
  0
LINE
  8
0
 10
1272.0
 20
-359.5
 30
0.0
 11
1228.0
 21
-359.5
 31
0.0
  0
LINE
  8
0
 10
1148.0
 20
-189.5
 30
0.0
 11
1050.0
 21
-189.5
 31
0.0
  0
LINE
  8
0
 10
1379.0
 20
77.0
 30
0.0
 11
1385.5
 21
77.0
 31
0.0
  0
LINE
  8
0
 10
1385.5
 20
77.0
 30
0.0
 11
1385.5
 21
10.0
 31
0.0
  0
LINE
  8
0
 10
1562.0
 20
77.0
 30
0.0
 11
1555.5
 21
77.0
 31
0.0
  0
LINE
  8
0
 10
1410.5
 20
83.0
 30
0.0
 11
1530.5
 21
83.0
 31
0.0
  0
LINE
  8
0
 10
1434.5
 20
99.0
 30
0.0
 11
1506.5
 21
99.0
 31
0.0
  0
LINE
  8
0
 10
1482.25
 20
102.0
 30
0.0
 11
1562.0
 21
102.0
 31
0.0
  0
LINE
  8
0
 10
1555.5
 20
77.0
 30
0.0
 11
1555.5
 21
10.0
 31
0.0
  0
LINE
  8
0
 10
1379.0
 20
77.0
 30
0.0
 11
1379.0
 21
102.0
 31
0.0
  0
LINE
  8
0
 10
1434.5
 20
83.0
 30
0.0
 11
1434.5
 21
99.0
 31
0.0
  0
LINE
  8
0
 10
1506.5
 20
99.0
 30
0.0
 11
1506.5
 21
83.0
 31
0.0
  0
LINE
  8
0
 10
1562.0
 20
102.0
 30
0.0
 11
1562.0
 21
77.0
 31
0.0
  0
LINE
  8
0
 10
1365.0
 20
10.0
 30
0.0
 11
1365.0
 21
72.0
 31
0.0
  0
LINE
  8
0
 10
1576.0
 20
10.0
 30
0.0
 11
1576.0
 21
72.0
 31
0.0
  0
LINE
  8
0
 10
1050.0
 20
-169.0
 30
0.0
 11
1272.0
 21
-169.0
 31
0.0
  0
LINE
  8
0
 10
1437.0
 20
99.0
 30
0.0
 11
1437.0
 21
132.0
 31
0.0
  0
LINE
  8
0
 10
1437.0
 20
132.0
 30
0.0
 11
1472.0
 21
132.0
 31
0.0
  0
LINE
  8
0
 10
1379.0
 20
102.0
 30
0.0
 11
1437.0
 21
102.0
 31
0.0
  0
LINE
  8
0
 10
1214.5
 20
132.0
 30
0.0
 11
1214.5
 21
123.0
 31
0.0
  0
LINE
  8
0
 10
1249.5
 20
123.0
 30
0.0
 11
1249.5
 21
132.0
 31
0.0
  0
CIRCLE
  8
0
 10
1232.0
 20
-258.5
 30
0.0
 40
17.5
  0
LINE
  8
0
 10
1228.0
 20
-183.0
 30
0.0
 11
1228.0
 21
-241.4632749625992005
 31
0.0
  0
LINE
  8
0
 10
1228.0
 20
-286.25
 30
0.0
 11
1228.0
 21
-366.0
 31
0.0
  0
CIRCLE
  8
0
 10
1850.0
 20
25.9999999999999893
 30
0.0
 40
13.5
  0
CIRCLE
  8
0
 10
1738.0
 20
26.0000000000000284
 30
0.0
 40
13.5
  0
CIRCLE
  8
0
 10
1794.0
 20
26.0
 30
0.0
 40
13.5
  0
CIRCLE
  8
0
 10
1794.0
 20
26.0
 30
0.0
 40
2.5
  0
CIRCLE
  8
0
 10
1882.5
 20
49.4999999999999929
 30
0.0
 40
20.0
  0
CIRCLE
  8
0
 10
1882.5
 20
49.4999999999999929
 30
0.0
 40
2.5
  0
CIRCLE
  8
0
 10
1705.5
 20
49.5000000000000071
 30
0.0
 40
2.5
  0
ARC
  8
0
 10
1850.0
 20
25.9999999999999893
 30
0.0
 40
16.0
 50
270.0
 51
296.5427524671772517
  0
ARC
  8
0
 10
1738.0
 20
26.0000000000000284
 30
0.0
 40
16.0
 50
243.4572475328226915
 51
270.0000000000001137
  0
ARC
  8
0
 10
1738.0
 20
26.0000000000000284
 30
0.0
 40
13.5
 50
243.4572475328227483
 51
270.0000000000001137
  0
LINE
  8
0
 10
1850.0
 20
12.5000000000000639
 30
0.0
 11
1738.0
 21
12.4999999999999929
 31
0.0
  0
ARC
  8
0
 10
1850.0
 20
25.9999999999999893
 30
0.0
 40
13.5
 50
270.0
 51
296.5427524671773654
  0
LINE
  8
0
 10
1696.5626907363466671
 20
31.6079765502664998
 30
0.0
 11
1731.9673162470339776
 21
13.9228841714298621
 31
0.0
  0
ARC
  8
0
 10
1705.5
 20
49.5000000000000071
 30
0.0
 40
20.0
 50
90.0
 51
243.4572475328226915
  0
LINE
  8
0
 10
1891.4373092636533329
 20
31.6079765502664536
 30
0.0
 11
1856.0326837529660224
 21
13.922884171429919
 31
0.0
  0
LINE
  8
0
 10
1882.5
 20
69.4999999999999716
 30
0.0
 11
1705.5
 21
69.5
 31
0.0
  0
ARC
  8
0
 10
1882.5
 20
49.4999999999999929
 30
0.0
 40
20.0
 50
296.5427524671773654
 51
90.0
  0
LINE
  8
0
 10
1695.4455270783898868
 20
29.3714736190498016
 30
0.0
 11
1730.8501525890771973
 21
11.6863812402131941
 31
0.0
  0
LINE
  8
0
 10
1895.0
 20
82.9999999999999858
 30
0.0
 11
1895.0
 21
68.2082869338696867
 31
0.0
  0
LINE
  8
0
 10
1882.5
 20
71.9999999999999716
 30
0.0
 11
1705.5
 21
72.0000000000000284
 31
0.0
  0
LINE
  8
0
 10
1892.5544729216101132
 20
29.3714736190498122
 30
0.0
 11
1857.1498474109228027
 21
11.6863812402133576
 31
0.0
  0
ARC
  8
0
 10
1882.5
 20
49.4999999999999929
 30
0.0
 40
22.5
 50
296.5427524671773654
 51
90.0
  0
LINE
  8
0
 10
1863.0
 20
83.0
 30
0.0
 11
1895.0
 21
82.9999999999999858
 31
0.0
  0
LINE
  8
0
 10
1863.0
 20
98.9999999999999858
 30
0.0
 11
1863.0
 21
83.0
 31
0.0
  0
LINE
  8
0
 10
1727.0
 20
102.0000000000000142
 30
0.0
 11
1727.0
 21
102.0000000000000142
 31
0.0
  0
LINE
  8
0
 10
1807.0
 20
83.0
 30
0.0
 11
1807.0
 21
83.0
 31
0.0
  0
LINE
  8
0
 10
1807.0
 20
83.0
 30
0.0
 11
1807.0
 21
83.0
 31
0.0
  0
LINE
  8
0
 10
1807.0
 20
98.9999999999999858
 30
0.0
 11
1863.0
 21
98.9999999999999858
 31
0.0
  0
LINE
  8
0
 10
1850.0
 20
10.0
 30
0.0
 11
1738.0
 21
10.0
 31
0.0
  0
LINE
  8
0
 10
1740.5
 20
132.0
 30
0.0
 11
1740.5
 21
102.0000000000000142
 31
0.0
  0
LINE
  8
0
 10
1705.5
 20
132.0
 30
0.0
 11
1740.5
 21
132.0
 31
0.0
  0
LINE
  8
0
 10
1727.0
 20
102.0
 30
0.0
 11
1727.0
 21
72.0000000000000142
 31
0.0
  0
LINE
  8
0
 10
1705.5
 20
93.0
 30
0.0
 11
1705.5
 21
132.0
 31
0.0
  0
LINE
  8
0
 10
1385.5
 20
10.0
 30
0.0
 11
1365.0
 21
10.0
 31
0.0
  0
LINE
  8
0
 10
1576.0
 20
-248.0
 30
0.0
 11
1555.5
 21
-248.0000000000000284
 31
0.0
  0
LINE
  8
0
 10
1365.0
 20
-248.0
 30
0.0
 11
1385.5
 21
-247.9999999999999716
 31
0.0
  0
LINE
  8
0
 10
1385.5
 20
-310.0
 30
0.0
 11
1365.0
 21
-310.0
 31
0.0
  0
LINE
  8
0
 10
1562.0
 20
-243.0000000000000568
 30
0.0
 11
1555.5
 21
-243.0000000000000284
 31
0.0
  0
LINE
  8
0
 10
1379.0
 20
-243.0
 30
0.0
 11
1385.5
 21
-243.0
 31
0.0
  0
LINE
  8
0
 10
1458.75
 20
-218.0
 30
0.0
 11
1379.0
 21
-218.0000000000000284
 31
0.0
  0
LINE
  8
0
 10
1562.0
 20
-243.0000000000000568
 30
0.0
 11
1562.0
 21
-218.0000000000000284
 31
0.0
  0
LINE
  8
0
 10
1379.0
 20
-218.0000000000000284
 30
0.0
 11
1379.0
 21
-243.0
 31
0.0
  0
LINE
  8
0
 10
1576.0
 20
-310.0
 30
0.0
 11
1576.0
 21
-248.0
 31
0.0
  0
LINE
  8
0
 10
1365.0
 20
-310.0
 30
0.0
 11
1365.0
 21
-248.0
 31
0.0
  0
LINE
  8
0
 10
1469.0
 20
-188.0
 30
0.0
 11
1469.0
 21
-197.0
 31
0.0
  0
LINE
  8
0
 10
1555.5
 20
-310.0
 30
0.0
 11
1576.0
 21
-310.0
 31
0.0
  0
LINE
  8
0
 10
1245.4049999999999727
 20
-247.25
 30
0.0
 11
1261.5
 21
-247.25
 31
0.0
  0
LINE
  8
0
 10
1504.0
 20
-188.0
 30
0.0
 11
1469.0
 21
-188.0
 31
0.0
  0
LINE
  8
0
 10
1504.0
 20
-229.5
 30
0.0
 11
1504.0
 21
-188.0
 31
0.0
  0
LINE
  8
0
 10
1261.5
 20
-218.0
 30
0.0
 11
1268.5
 21
-218.0
 31
0.0
  0
LINE
  8
0
 10
1550.5
 20
-284.5
 30
0.0
 11
1527.0
 21
-284.5
 31
0.0
  0
LINE
  8
0
 10
1385.5
 20
-243.0
 30
0.0
 11
1385.5
 21
-310.0
 31
0.0
  0
LINE
  8
0
 10
1414.0
 20
-284.5
 30
0.0
 11
1390.5
 21
-284.5
 31
0.0
  0
LINE
  8
0
 10
1434.5
 20
-268.5
 30
0.0
 11
1434.5
 21
-291.0
 31
0.0
  0
LINE
  8
0
 10
1506.5
 20
-268.5
 30
0.0
 11
1434.5
 21
-268.5
 31
0.0
  0
LINE
  8
0
 10
1506.5
 20
-291.0
 30
0.0
 11
1506.5
 21
-268.5
 31
0.0
  0
LINE
  8
0
 10
1527.0
 20
-291.0
 30
0.0
 11
1527.0
 21
-261.0
 31
0.0
  0
LINE
  8
0
 10
1414.0
 20
-261.0
 30
0.0
 11
1414.0
 21
-291.0
 31
0.0
  0
LINE
  8
0
 10
1504.0
 20
-229.5
 30
0.0
 11
1476.5
 21
-229.5
 31
0.0
  0
LINE
  8
0
 10
1469.0
 20
-250.0
 30
0.0
 11
1469.0
 21
-220.5
 31
0.0
  0
LINE
  8
0
 10
1555.5
 20
-243.0
 30
0.0
 11
1555.5
 21
-310.0
 31
0.0
  0
LINE
  8
0
 10
1476.5
 20
-250.0
 30
0.0
 11
1476.5
 21
-220.5
 31
0.0
  0
LINE
  8
0
 10
1497.75
 20
-197.0
 30
0.0
 11
1497.75
 21
-220.5
 31
0.0
  0
LINE
  8
0
 10
1727.0
 20
93.0
 30
0.0
 11
1705.5
 21
93.0
 31
0.0
  0
LINE
  8
0
 10
1476.5
 20
-220.5
 30
0.0
 11
1497.75
 21
-220.5
 31
0.0
  0
LINE
  8
0
 10
1693.5
 20
123.0
 30
0.0
 11
1705.5
 21
123.0
 31
0.0
  0
LINE
  8
0
 10
1705.5
 20
99.5
 30
0.0
 11
1693.5
 21
99.5
 31
0.0
  0
LINE
  8
0
 10
1261.5
 20
99.5
 30
0.0
 11
1228.0
 21
99.5
 31
0.0
  0
CIRCLE
  8
0
 10
1705.5
 20
49.5
 30
0.0
 40
20.0
  0
ARC
  8
0
 10
1705.5
 20
49.5
 30
0.0
 40
22.5
 50
90.0
 51
243.4570000000000221
  0
LINE
  8
0
 10
1686.5
 20
-354.5
 30
0.0
 11
1686.5
 21
-330.9999999999999432
 31
0.0
  0
LINE
  8
0
 10
1905.0
 20
-189.4999999999999716
 30
0.0
 11
1905.0
 21
-169.0000000000000284
 31
0.0
  0
LINE
  8
0
 10
1683.0
 20
-168.9999999999999716
 30
0.0
 11
1683.0
 21
-189.4999999999999716
 31
0.0
  0
LINE
  8
0
 10
1683.0
 20
-380.0
 30
0.0
 11
1683.0
 21
-359.4999999999999432
 31
0.0
  0
LINE
  8
0
 10
1743.0
 20
-238.5
 30
0.0
 11
1693.5
 21
-238.5
 31
0.0
  0
LINE
  8
0
 10
1693.5
 20
-310.5
 30
0.0
 11
1743.0
 21
-310.5
 31
0.0
  0
LINE
  8
0
 10
1743.0
 20
-238.5
 30
0.0
 11
1743.0
 21
-310.5
 31
0.0
  0
LINE
  8
0
 10
1712.5
 20
-238.5
 30
0.0
 11
1712.5
 21
-217.9999999999999716
 31
0.0
  0
LINE
  8
0
 10
1727.0
 20
-217.9999999999999716
 30
0.0
 11
1686.5
 21
-217.9999999999999716
 31
0.0
  0
LINE
  8
0
 10
1686.5
 20
-330.9999999999999432
 30
0.0
 11
1727.0
 21
-331.0000000000002842
 31
0.0
  0
LINE
  8
0
 10
1410.5
 20
51.5
 30
0.0
 11
1410.5
 21
83.0
 31
0.0
  0
LINE
  8
0
 10
1530.5
 20
83.0
 30
0.0
 11
1530.5
 21
51.5
 31
0.0
  0
LINE
  8
0
 10
1530.5
 20
51.5
 30
0.0
 11
1555.5
 21
51.5
 31
0.0
  0
LINE
  8
0
 10
1686.5
 20
-194.5
 30
0.0
 11
1727.0
 21
-194.5
 31
0.0
  0
LINE
  8
0
 10
1727.0
 20
-354.4999999999996589
 30
0.0
 11
1686.5
 21
-354.5
 31
0.0
  0
LINE
  8
0
 10
1727.0
 20
-331.0000000000002842
 30
0.0
 11
1727.0
 21
-359.4999999999999432
 31
0.0
  0
LINE
  8
0
 10
1712.5
 20
-331.0
 30
0.0
 11
1712.5
 21
-310.5
 31
0.0
  0
CIRCLE
  8
0
 10
1850.0
 20
26.0
 30
0.0
 40
2.5
  0
LINE
  8
0
 10
1905.0
 20
-169.0
 30
0.0
 11
1683.0
 21
-169.0
 31
0.0
  0
LINE
  8
0
 10
1683.0
 20
-189.5
 30
0.0
 11
1905.0
 21
-189.5
 31
0.0
  0
LINE
  8
0
 10
1683.0
 20
-359.5
 30
0.0
 11
1905.0
 21
-359.5
 31
0.0
  0
CIRCLE
  8
0
 10
1738.0
 20
26.0
 30
0.0
 40
2.5
  0
LINE
  8
0
 10
1738.0
 20
-169.0
 30
0.0
 11
1738.0
 21
-189.5
 31
0.0
  0
LINE
  8
0
 10
1850.0
 20
-169.0
 30
0.0
 11
1850.0
 21
-189.5
 31
0.0
  0
LINE
  8
0
 10
1850.0
 20
-380.0
 30
0.0
 11
1850.0
 21
-359.5
 31
0.0
  0
LINE
  8
0
 10
1738.0
 20
-359.5
 30
0.0
 11
1738.0
 21
-380.0
 31
0.0
  0
LINE
  8
0
 10
1261.5
 20
-359.5
 30
0.0
 11
1261.5
 21
-189.5
 31
0.0
  0
LINE
  8
0
 10
1261.5
 20
-354.5
 30
0.0
 11
1268.5
 21
-354.5
 31
0.0
  0
LINE
  8
0
 10
1268.5
 20
-194.5
 30
0.0
 11
1261.5
 21
-194.5
 31
0.0
  0
LINE
  8
0
 10
1476.5
 20
-250.0
 30
0.0
 11
1555.5
 21
-250.0
 31
0.0
  0
LINE
  8
0
 10
1390.5
 20
-284.5
 30
0.0
 11
1390.5
 21
-261.0
 31
0.0
  0
LINE
  8
0
 10
1527.0
 20
-261.0
 30
0.0
 11
1550.5
 21
-261.0
 31
0.0
  0
LINE
  8
0
 10
1550.5
 20
-261.0
 30
0.0
 11
1550.5
 21
-284.5
 31
0.0
  0
LINE
  8
0
 10
1434.5
 20
-276.0
 30
0.0
 11
1414.0
 21
-276.0
 31
0.0
  0
LINE
  8
0
 10
1390.5
 20
-276.0
 30
0.0
 11
1385.5
 21
-276.0
 31
0.0
  0
LINE
  8
0
 10
1550.5
 20
-276.0
 30
0.0
 11
1555.5
 21
-276.0
 31
0.0
  0
LINE
  8
0
 10
1727.0
 20
-189.5
 30
0.0
 11
1727.0
 21
-218.0
 31
0.0
  0
LINE
  8
0
 10
1693.5
 20
-189.5
 30
0.0
 11
1693.5
 21
-194.5
 31
0.0
  0
LINE
  8
0
 10
1148.0
 20
77.0
 30
0.0
 11
1228.0
 21
77.0
 31
0.0
  0
LINE
  8
0
 10
1148.0
 20
83.0
 30
0.0
 11
1092.0
 21
83.0
 31
0.0
  0
LINE
  8
0
 10
1147.8375534189117388
 20
29.0
 30
0.0
 11
1118.1624465810882612
 21
29.0
 31
0.0
  0
LINE
  8
0
 10
1174.1620000000000346
 20
29.0
 30
0.0
 11
1203.8379999999999654
 21
29.0
 31
0.0
  0
LINE
  8
0
 10
1555.5
 20
29.0
 30
0.0
 11
1385.5
 21
29.0
 31
0.0
  0
LINE
  8
0
 10
1807.0
 20
83.0
 30
0.0
 11
1863.0
 21
83.0
 31
0.0
  0
LINE
  8
0
 10
1807.1624465810882612
 20
29.0
 30
0.0
 11
1836.8375534189117388
 21
29.0
 31
0.0
  0
LINE
  8
0
 10
1807.0
 20
77.0
 30
0.0
 11
1727.0
 21
77.0
 31
0.0
  0
LINE
  8
0
 10
1780.8375534189117388
 20
29.0
 30
0.0
 11
1751.1624465810882612
 21
29.0
 31
0.0
  0
LINE
  8
0
 10
1876.0
 20
29.0
 30
0.0
 11
1863.1624465810882612
 21
29.0
 31
0.0
  0
LINE
  8
0
 10
1877.4531658927558055
 20
30.1472362311230277
 30
0.0
 11
1876.0
 21
29.0
 31
0.0
  0
LINE
  8
0
 10
1876.0
 20
-189.5
 30
0.0
 11
1876.0
 21
-359.5
 31
0.0
  0
LINE
  8
0
 10
1895.0
 20
-189.5
 30
0.0
 11
1895.0
 21
-359.5
 31
0.0
  0
LINE
  8
0
 10
1060.0
 20
83.0
 30
0.0
 11
1060.0
 21
70.0
 31
0.0
  0
LINE
  8
0
 10
1079.0
 20
29.0
 30
0.0
 11
1091.8375534189117388
 21
29.0
 31
0.0
  0
LINE
  8
0
 10
1077.5468341072441945
 20
30.1472362311230313
 30
0.0
 11
1079.0
 21
29.0
 31
0.0
  0
LINE
  8
0
 10
1562.0
 20
-218.0
 30
0.0
 11
1504.0
 21
-218.0
 31
0.0
  0
LINE
  8
0
 10
1807.0
 20
102.0
 30
0.0
 11
1727.0
 21
102.0
 31
0.0
  0
LINE
  8
0
 10
1506.5
 20
-276.0
 30
0.0
 11
1527.0
 21
-276.0
 31
0.0
  0
LINE
  8
0
 10
1693.5
 20
70.0
 30
0.0
 11
1693.5
 21
123.0
 31
0.0
  0
LINE
  8
0
 10
1693.5
 20
70.0
 30
0.0
 11
1696.2263815045043884
 21
70.0
 31
0.0
  0
LINE
  8
0
 10
1727.0
 20
44.0
 30
0.0
 11
1727.0
 21
33.8262379212492874
 31
0.0
  0
LINE
  8
0
 10
1724.7288845230293646
 20
44.0
 30
0.0
 11
1727.0
 21
44.0
 31
0.0
  0
LINE
  8
0
 10
1712.5
 20
29.0
 30
0.0
 11
1710.9190246037869656
 21
30.2481384706945313
 31
0.0
  0
LINE
  8
0
 10
1693.5
 20
70.0
 30
0.0
 11
1693.5
 21
68.5328663106742795
 31
0.0
  0
LINE
  8
0
 10
1727.0
 20
35.5
 30
0.0
 11
1719.7828568570857897
 21
35.5
 31
0.0
  0
LINE
  8
0
 10
1261.5
 20
68.5328999999999979
 30
0.0
 11
1261.5
 21
123.0
 31
0.0
  0
LINE
  8
0
 10
1242.5
 20
29.0
 30
0.0
 11
1230.1624465810882612
 21
29.0
 31
0.0
  0
LINE
  8
0
 10
1228.0
 20
33.8262379212492661
 30
0.0
 11
1228.0
 21
44.0
 31
0.0
  0
LINE
  8
0
 10
1228.0
 20
44.0
 30
0.0
 11
1230.2711154769706354
 21
44.0
 31
0.0
  0
LINE
  8
0
 10
1244.0809753962130344
 20
30.2481384706945278
 30
0.0
 11
1242.5
 21
29.0
 31
0.0
  0
LINE
  8
0
 10
1228.0
 20
35.5
 30
0.0
 11
1235.2171431429142103
 21
35.5
 31
0.0
  0
LINE
  8
0
 10
1105.0
 20
10.0
 30
0.0
 11
1217.0
 21
10.0
 31
0.0
  0
LINE
  8
0
 10
1385.5
 20
51.5
 30
0.0
 11
1410.5
 21
51.5
 31
0.0
  0
LINE
  8
0
 10
1385.5
 20
44.0
 30
0.0
 11
1555.5
 21
44.0
 31
0.0
  0
LINE
  8
0
 10
1060.0
 20
83.0
 30
0.0
 11
1060.0
 21
68.2082999999999942
 31
0.0
  0
LINE
  8
0
 10
1148.0
 20
72.0
 30
0.0
 11
1148.0
 21
102.0
 31
0.0
  0
LINE
  8
0
 10
1228.0
 20
102.0
 30
0.0
 11
1228.0
 21
72.0
 31
0.0
  0
LINE
  8
0
 10
1258.7736184954956116
 20
70.0
 30
0.0
 11
1261.5
 21
70.0
 31
0.0
  0
LINE
  8
0
 10
1148.0
 20
69.5
 30
0.0
 11
1148.0
 21
51.5
 31
0.0
  0
LINE
  8
0
 10
1092.3997487421324877
 20
51.5
 30
0.0
 11
1148.0
 21
51.5
 31
0.0
  0
LINE
  8
0
 10
1807.0
 20
72.0
 30
0.0
 11
1807.0
 21
102.0
 31
0.0
  0
LINE
  8
0
 10
1895.0
 20
83.0
 30
0.0
 11
1895.0
 21
70.0
 31
0.0
  0
LINE
  8
0
 10
1807.0
 20
51.5
 30
0.0
 11
1862.6002512578675123
 21
51.5
 31
0.0
  0
LINE
  8
0
 10
1807.0
 20
51.5
 30
0.0
 11
1807.0
 21
69.4999999999999858
 31
0.0
  0
LINE
  8
0
 10
1249.5
 20
422.0
 30
0.0
 11
1214.5
 21
422.0
 31
0.0
  0
LINE
  8
0
 10
1092.0
 20
373.0
 30
0.0
 11
1060.0
 21
373.0
 31
0.0
  0
LINE
  8
0
 10
1092.0
 20
389.0
 30
0.0
 11
1092.0
 21
373.0
 31
0.0
  0
LINE
  8
0
 10
1148.0
 20
392.0
 30
0.0
 11
1228.0
 21
392.0
 31
0.0
  0
LINE
  8
0
 10
1228.0
 20
392.0
 30
0.0
 11
1228.0
 21
392.0
 31
0.0
  0
LINE
  8
0
 10
1148.0
 20
373.0
 30
0.0
 11
1148.0
 21
373.0
 31
0.0
  0
LINE
  8
0
 10
1148.0
 20
373.0
 30
0.0
 11
1148.0
 21
373.0
 31
0.0
  0
LINE
  8
0
 10
1148.0
 20
389.0
 30
0.0
 11
1092.0
 21
389.0
 31
0.0
  0
LINE
  8
0
 10
1214.5
 20
422.0
 30
0.0
 11
1214.5
 21
413.0
 31
0.0
  0
LINE
  8
0
 10
1249.5
 20
413.0
 30
0.0
 11
1249.5
 21
422.0
 31
0.0
  0
LINE
  8
0
 10
1261.5
 20
389.5
 30
0.0
 11
1228.0
 21
389.5
 31
0.0
  0
LINE
  8
0
 10
1148.0
 20
367.0
 30
0.0
 11
1228.0
 21
367.0
 31
0.0
  0
LINE
  8
0
 10
1148.0
 20
373.0
 30
0.0
 11
1092.0
 21
373.0
 31
0.0
  0
LINE
  8
0
 10
1060.0
 20
373.0
 30
0.0
 11
1060.0
 21
360.0
 31
0.0
  0
LINE
  8
0
 10
1148.0
 20
341.5
 30
0.0
 11
1148.0
 21
392.0
 31
0.0
  0
LINE
  8
0
 10
1228.0
 20
319.0
 30
0.0
 11
1228.0
 21
334.0
 31
0.0
  0
LINE
  8
0
 10
1228.0
 20
392.0
 30
0.0
 11
1228.0
 21
360.0
 31
0.0
  0
LINE
  8
0
 10
1228.0
 20
360.0
 30
0.0
 11
1261.5
 21
360.0
 31
0.0
  0
LINE
  8
0
 10
1250.7333333333333485
 20
325.5
 30
0.0
 11
1242.5
 21
319.0
 31
0.0
  0
LINE
  8
0
 10
1060.0
 20
341.5
 30
0.0
 11
1148.0
 21
341.5
 31
0.0
  0
LINE
  8
0
 10
1060.0
 20
334.0000000000000568
 30
0.0
 11
1079.0
 21
319.0
 31
0.0
  0
LINE
  8
0
 10
1060.0
 20
373.0
 30
0.0
 11
1060.0
 21
334.0000000000000568
 31
0.0
  0
LINE
  8
0
 10
1469.0
 20
-250.0
 30
0.0
 11
1385.5
 21
-250.0
 31
0.0
  0
LINE
  8
0
 10
1390.5
 20
-261.0
 30
0.0
 11
1414.0
 21
-261.0
 31
0.0
  0
LINE
  8
0
 10
1268.5
 20
-218.0
 30
0.0
 11
1268.5
 21
-194.5
 31
0.0
  0
LINE
  8
0
 10
1228.0
 20
325.5
 30
0.0
 11
1256.75
 21
325.5
 31
0.0
  0
LINE
  8
0
 10
1261.5
 20
334.0
 30
0.0
 11
1261.5
 21
413.0
 31
0.0
  0
LINE
  8
0
 10
1228.0
 20
334.0
 30
0.0
 11
1261.5
 21
334.0
 31
0.0
  0
LINE
  8
0
 10
1724.8379999999999654
 20
29.0
 30
0.0
 11
1712.5
 21
29.0
 31
0.0
  0
LINE
  8
0
 10
1863.0
 20
373.0
 30
0.0
 11
1895.0
 21
373.0
 31
0.0
  0
LINE
  8
0
 10
1863.0
 20
389.0
 30
0.0
 11
1863.0
 21
373.0
 31
0.0
  0
LINE
  8
0
 10
1727.0
 20
392.0
 30
0.0
 11
1727.0
 21
392.0
 31
0.0
  0
LINE
  8
0
 10
1807.0
 20
373.0
 30
0.0
 11
1807.0
 21
373.0
 31
0.0
  0
LINE
  8
0
 10
1807.0
 20
373.0
 30
0.0
 11
1807.0
 21
373.0
 31
0.0
  0
LINE
  8
0
 10
1807.0
 20
389.0
 30
0.0
 11
1863.0
 21
389.0
 31
0.0
  0
LINE
  8
0
 10
1740.5
 20
422.0
 30
0.0
 11
1740.5
 21
392.0
 31
0.0
  0
LINE
  8
0
 10
1705.5
 20
422.0
 30
0.0
 11
1740.5
 21
422.0
 31
0.0
  0
LINE
  8
0
 10
1705.5
 20
383.0
 30
0.0
 11
1705.5
 21
422.0
 31
0.0
  0
LINE
  8
0
 10
1727.0
 20
383.0
 30
0.0
 11
1705.5
 21
383.0
 31
0.0
  0
LINE
  8
0
 10
1693.5
 20
413.0
 30
0.0
 11
1705.5
 21
413.0
 31
0.0
  0
LINE
  8
0
 10
1705.5
 20
389.5
 30
0.0
 11
1693.5
 21
389.5
 31
0.0
  0
LINE
  8
0
 10
1807.0
 20
373.0
 30
0.0
 11
1863.0
 21
373.0
 31
0.0
  0
LINE
  8
0
 10
1807.0
 20
367.0
 30
0.0
 11
1727.0
 21
367.0
 31
0.0
  0
LINE
  8
0
 10
1807.0
 20
392.0
 30
0.0
 11
1727.0
 21
392.0
 31
0.0
  0
LINE
  8
0
 10
1693.5
 20
360.0
 30
0.0
 11
1693.5
 21
413.0
 31
0.0
  0
LINE
  8
0
 10
1895.0
 20
373.0
 30
0.0
 11
1895.0
 21
360.0
 31
0.0
  0
LINE
  8
0
 10
1079.0
 20
319.0
 30
0.0
 11
1228.0
 21
319.0
 31
0.0
  0
LINE
  8
0
 10
1807.0
 20
341.5
 30
0.0
 11
1895.0
 21
341.5
 31
0.0
  0
LINE
  8
0
 10
1895.0
 20
373.0
 30
0.0
 11
1895.0
 21
334.0000000000003411
 31
0.0
  0
LINE
  8
0
 10
1895.0
 20
334.0000000000003411
 30
0.0
 11
1876.0
 21
319.0
 31
0.0
  0
LINE
  8
0
 10
1727.0
 20
319.0
 30
0.0
 11
1712.5
 21
319.0
 31
0.0
  0
LINE
  8
0
 10
1727.0
 20
334.0
 30
0.0
 11
1727.0
 21
319.0
 31
0.0
  0
LINE
  8
0
 10
1876.0
 20
319.0
 30
0.0
 11
1727.0
 21
319.0
 31
0.0
  0
LINE
  8
0
 10
1693.5
 20
360.0
 30
0.0
 11
1727.0
 21
360.0
 31
0.0
  0
LINE
  8
0
 10
1712.5
 20
319.0
 30
0.0
 11
1704.2666666666668789
 21
325.5
 31
0.0
  0
LINE
  8
0
 10
1693.5
 20
-331.0
 30
0.0
 11
1693.5
 21
-218.0
 31
0.0
  0
LINE
  8
0
 10
1686.5
 20
-218.0
 30
0.0
 11
1686.5
 21
-194.5
 31
0.0
  0
ARC
  8
0
 10
1256.75
 20
337.25
 30
0.0
 40
11.75
 50
270.0
 51
66.1555000000000035
  0
LINE
  8
0
 10
1693.5
 20
334.0
 30
0.0
 11
1727.0
 21
334.0
 31
0.0
  0
LINE
  8
0
 10
1693.5
 20
360.0
 30
0.0
 11
1693.5
 21
334.0
 31
0.0
  0
ARC
  8
0
 10
1698.25
 20
337.25
 30
0.0
 40
11.75
 50
113.8444700235050391
 51
270.0
  0
LINE
  8
0
 10
1727.0
 20
325.5
 30
0.0
 11
1698.25
 21
325.5
 31
0.0
  0
LINE
  8
0
 10
1242.5
 20
319.0
 30
0.0
 11
1228.0
 21
319.0
 31
0.0
  0
LINE
  8
0
 10
1385.5
 20
-291.0
 30
0.0
 11
1555.5
 21
-291.0
 31
0.0
  0
LINE
  8
0
 10
1379.0
 20
687.0
 30
0.0
 11
1385.5
 21
687.0
 31
0.0
  0
LINE
  8
0
 10
1562.0
 20
687.0
 30
0.0
 11
1555.5
 21
687.0
 31
0.0
  0
LINE
  8
0
 10
1410.5
 20
693.0
 30
0.0
 11
1530.5
 21
693.0
 31
0.0
  0
LINE
  8
0
 10
1434.5
 20
709.0
 30
0.0
 11
1506.5
 21
709.0
 31
0.0
  0
LINE
  8
0
 10
1482.25
 20
712.0
 30
0.0
 11
1562.0
 21
712.0
 31
0.0
  0
LINE
  8
0
 10
1379.0
 20
687.0
 30
0.0
 11
1379.0
 21
712.0
 31
0.0
  0
LINE
  8
0
 10
1434.5
 20
693.0
 30
0.0
 11
1434.5
 21
709.0
 31
0.0
  0
LINE
  8
0
 10
1506.5
 20
709.0
 30
0.0
 11
1506.5
 21
693.0
 31
0.0
  0
LINE
  8
0
 10
1562.0
 20
712.0
 30
0.0
 11
1562.0
 21
687.0
 31
0.0
  0
LINE
  8
0
 10
1437.0
 20
709.0
 30
0.0
 11
1437.0
 21
742.0
 31
0.0
  0
LINE
  8
0
 10
1437.0
 20
742.0
 30
0.0
 11
1472.0
 21
742.0
 31
0.0
  0
LINE
  8
0
 10
1379.0
 20
712.0
 30
0.0
 11
1437.0
 21
712.0
 31
0.0
  0
LINE
  8
0
 10
1562.0
 20
366.9999999999999432
 30
0.0
 11
1555.5
 21
367.0
 31
0.0
  0
LINE
  8
0
 10
1379.0
 20
367.0
 30
0.0
 11
1385.5
 21
367.0
 31
0.0
  0
LINE
  8
0
 10
1458.75
 20
392.0
 30
0.0
 11
1379.0
 21
392.0
 31
0.0
  0
LINE
  8
0
 10
1562.0
 20
366.9999999999999432
 30
0.0
 11
1562.0
 21
392.0
 31
0.0
  0
LINE
  8
0
 10
1379.0
 20
392.0
 30
0.0
 11
1379.0
 21
367.0
 31
0.0
  0
LINE
  8
0
 10
1469.0
 20
422.0
 30
0.0
 11
1469.0
 21
413.0
 31
0.0
  0
LINE
  8
0
 10
1504.0
 20
422.0
 30
0.0
 11
1469.0
 21
422.0
 31
0.0
  0
LINE
  8
0
 10
1504.0
 20
380.5
 30
0.0
 11
1504.0
 21
422.0
 31
0.0
  0
LINE
  8
0
 10
1550.5
 20
325.5
 30
0.0
 11
1527.0
 21
325.5
 31
0.0
  0
LINE
  8
0
 10
1414.0
 20
325.5
 30
0.0
 11
1390.5
 21
325.5
 31
0.0
  0
LINE
  8
0
 10
1434.5
 20
341.5
 30
0.0
 11
1434.5
 21
319.0
 31
0.0
  0
LINE
  8
0
 10
1506.5
 20
341.5
 30
0.0
 11
1434.5
 21
341.5
 31
0.0
  0
LINE
  8
0
 10
1506.5
 20
319.0
 30
0.0
 11
1506.5
 21
341.5
 31
0.0
  0
LINE
  8
0
 10
1527.0
 20
319.0
 30
0.0
 11
1527.0
 21
349.0
 31
0.0
  0
LINE
  8
0
 10
1414.0
 20
349.0
 30
0.0
 11
1414.0
 21
319.0
 31
0.0
  0
LINE
  8
0
 10
1504.0
 20
380.5
 30
0.0
 11
1476.5
 21
380.5
 31
0.0
  0
LINE
  8
0
 10
1469.0
 20
360.0
 30
0.0
 11
1469.0
 21
389.5
 31
0.0
  0
LINE
  8
0
 10
1476.5
 20
360.0
 30
0.0
 11
1476.5
 21
389.5
 31
0.0
  0
LINE
  8
0
 10
1497.75
 20
413.0
 30
0.0
 11
1497.75
 21
389.5
 31
0.0
  0
LINE
  8
0
 10
1476.5
 20
389.5
 30
0.0
 11
1497.75
 21
389.5
 31
0.0
  0
LINE
  8
0
 10
1410.5
 20
661.5
 30
0.0
 11
1410.5
 21
693.0
 31
0.0
  0
LINE
  8
0
 10
1530.5
 20
693.0
 30
0.0
 11
1530.5
 21
661.5
 31
0.0
  0
LINE
  8
0
 10
1530.5
 20
661.5
 30
0.0
 11
1555.5
 21
661.5
 31
0.0
  0
LINE
  8
0
 10
1476.5
 20
360.0
 30
0.0
 11
1555.5
 21
360.0
 31
0.0
  0
LINE
  8
0
 10
1390.5
 20
325.5
 30
0.0
 11
1390.5
 21
349.0
 31
0.0
  0
LINE
  8
0
 10
1527.0
 20
349.0
 30
0.0
 11
1550.5
 21
349.0
 31
0.0
  0
LINE
  8
0
 10
1550.5
 20
349.0
 30
0.0
 11
1550.5
 21
325.5
 31
0.0
  0
LINE
  8
0
 10
1434.5
 20
334.0
 30
0.0
 11
1414.0
 21
334.0
 31
0.0
  0
LINE
  8
0
 10
1390.5
 20
334.0
 30
0.0
 11
1385.5
 21
334.0
 31
0.0
  0
LINE
  8
0
 10
1550.5
 20
334.0
 30
0.0
 11
1555.5
 21
334.0
 31
0.0
  0
LINE
  8
0
 10
1562.0
 20
392.0
 30
0.0
 11
1504.0
 21
392.0
 31
0.0
  0
LINE
  8
0
 10
1506.5
 20
334.0
 30
0.0
 11
1527.0
 21
334.0
 31
0.0
  0
LINE
  8
0
 10
1385.5
 20
661.5
 30
0.0
 11
1410.5
 21
661.5
 31
0.0
  0
LINE
  8
0
 10
1385.5
 20
654.0
 30
0.0
 11
1555.5
 21
654.0
 31
0.0
  0
LINE
  8
0
 10
1469.0
 20
360.0
 30
0.0
 11
1385.5
 21
360.0
 31
0.0
  0
LINE
  8
0
 10
1390.5
 20
349.0
 30
0.0
 11
1414.0
 21
349.0
 31
0.0
  0
LINE
  8
0
 10
1385.5
 20
687.0
 30
0.0
 11
1385.5
 21
639.0
 31
0.0
  0
LINE
  8
0
 10
1555.5
 20
687.0
 30
0.0
 11
1555.5
 21
639.0
 31
0.0
  0
LINE
  8
0
 10
1555.5
 20
639.0
 30
0.0
 11
1385.5
 21
639.0
 31
0.0
  0
LINE
  8
0
 10
1385.5
 20
367.0
 30
0.0
 11
1385.5
 21
319.0
 31
0.0
  0
LINE
  8
0
 10
1385.5
 20
319.0
 30
0.0
 11
1555.5
 21
319.0
 31
0.0
  0
LINE
  8
0
 10
1555.5
 20
367.0
 30
0.0
 11
1555.5
 21
319.0
 31
0.0
  0
LINE
  8
0
 10
1693.5
 20
-354.5
 30
0.0
 11
1693.5
 21
-359.5
 31
0.0
  0
LINE
  8
0
 10
1686.5
 20
595.0
 30
0.0
 11
1686.5
 21
618.5
 31
0.0
  0
LINE
  8
0
 10
1743.0
 20
711.0
 30
0.0
 11
1693.5
 21
711.0
 31
0.0
  0
LINE
  8
0
 10
1693.5
 20
639.0
 30
0.0
 11
1743.0
 21
639.0
 31
0.0
  0
LINE
  8
0
 10
1743.0
 20
711.0
 30
0.0
 11
1743.0
 21
639.0
 31
0.0
  0
LINE
  8
0
 10
1712.5
 20
711.0
 30
0.0
 11
1712.5
 21
731.5
 31
0.0
  0
LINE
  8
0
 10
1727.0
 20
731.5
 30
0.0
 11
1686.5
 21
731.5
 31
0.0
  0
LINE
  8
0
 10
1686.5
 20
618.5
 30
0.0
 11
1727.0
 21
618.4999999999997726
 31
0.0
  0
LINE
  8
0
 10
1686.5
 20
755.0
 30
0.0
 11
1727.0
 21
755.0
 31
0.0
  0
LINE
  8
0
 10
1727.0
 20
595.0000000000003411
 30
0.0
 11
1686.5
 21
595.0
 31
0.0
  0
LINE
  8
0
 10
1712.5
 20
618.5
 30
0.0
 11
1712.5
 21
639.0
 31
0.0
  0
LINE
  8
0
 10
1727.0
 20
760.0
 30
0.0
 11
1727.0
 21
731.5
 31
0.0
  0
LINE
  8
0
 10
1876.0
 20
760.0
 30
0.0
 11
1876.0
 21
590.0
 31
0.0
  0
LINE
  8
0
 10
1686.5
 20
731.5
 30
0.0
 11
1686.5
 21
755.0
 31
0.0
  0
LINE
  8
0
 10
1895.0
 20
760.0
 30
0.0
 11
1895.0
 21
590.0
 31
0.0
  0
LINE
  8
0
 10
1693.5
 20
595.0
 30
0.0
 11
1693.5
 21
590.0
 31
0.0
  0
LINE
  8
0
 10
1693.5
 20
590.0
 30
0.0
 11
1895.0
 21
590.0
 31
0.0
  0
LINE
  8
0
 10
1693.5
 20
760.0
 30
0.0
 11
1693.5
 21
755.0
 31
0.0
  0
LINE
  8
0
 10
1693.5
 20
760.0
 30
0.0
 11
1895.0
 21
760.0
 31
0.0
  0
LINE
  8
0
 10
1060.0
 20
-189.5
 30
0.0
 11
1060.0
 21
-359.5
 31
0.0
  0
LINE
  8
0
 10
1268.5
 20
595.0
 30
0.0
 11
1268.5
 21
618.5
 31
0.0
  0
LINE
  8
0
 10
1268.5
 20
618.5
 30
0.0
 11
1261.5
 21
618.5
 31
0.0
  0
LINE
  8
0
 10
1060.0
 20
735.0
 30
0.0
 11
1148.0
 21
735.0
 31
0.0
  0
LINE
  8
0
 10
1148.0
 20
615.0
 30
0.0
 11
1060.0
 21
615.0
 31
0.0
  0
LINE
  8
0
 10
1092.0
 20
711.0
 30
0.0
 11
1148.0
 21
711.0
 31
0.0
  0
LINE
  8
0
 10
1092.0
 20
639.0
 30
0.0
 11
1092.0
 21
711.0
 31
0.0
  0
CIRCLE
  8
0
 10
1232.0
 20
691.0
 30
0.0
 40
17.5
  0
LINE
  8
0
 10
1228.0
 20
766.5
 30
0.0
 11
1228.0
 21
708.0367250374008563
 31
0.0
  0
LINE
  8
0
 10
1245.4049999999999727
 20
702.25
 30
0.0
 11
1261.5
 21
702.25
 31
0.0
  0
LINE
  8
0
 10
1261.5
 20
731.5
 30
0.0
 11
1268.5
 21
731.5
 31
0.0
  0
LINE
  8
0
 10
1261.5
 20
595.0
 30
0.0
 11
1268.5
 21
595.0
 31
0.0
  0
LINE
  8
0
 10
1268.5
 20
755.0
 30
0.0
 11
1261.5
 21
755.0
 31
0.0
  0
LINE
  8
0
 10
1268.5
 20
731.5
 30
0.0
 11
1268.5
 21
755.0
 31
0.0
  0
LINE
  8
0
 10
1148.0
 20
760.0
 30
0.0
 11
1060.0
 21
760.0
 31
0.0
  0
LINE
  8
0
 10
1261.5
 20
760.0
 30
0.0
 11
1228.0
 21
760.0
 31
0.0
  0
LINE
  8
0
 10
1261.5
 20
590.0
 30
0.0
 11
1228.0
 21
590.0
 31
0.0
  0
LINE
  8
0
 10
1228.0
 20
663.25
 30
0.0
 11
1228.0
 21
583.5
 31
0.0
  0
LINE
  8
0
 10
1261.5
 20
590.0
 30
0.0
 11
1261.5
 21
760.0
 31
0.0
  0
LINE
  8
0
 10
1693.5
 20
618.5
 30
0.0
 11
1693.5
 21
731.5
 31
0.0
  0
LINE
  8
0
 10
1727.0
 20
392.0
 30
0.0
 11
1727.0
 21
360.0
 31
0.0
  0
LINE
  8
0
 10
1807.0
 20
341.5
 30
0.0
 11
1807.0
 21
392.0
 31
0.0
  0
LINE
  8
0
 10
1727.0
 20
766.5
 30
0.0
 11
1807.0
 21
766.5
 31
0.0
  0
LINE
  8
0
 10
1807.0
 20
583.5
 30
0.0
 11
1727.0
 21
583.5
 31
0.0
  0
LINE
  8
0
 10
1807.0
 20
583.5
 30
0.0
 11
1807.0
 21
590.0
 31
0.0
  0
LINE
  8
0
 10
1807.0
 20
766.5
 30
0.0
 11
1807.0
 21
760.0
 31
0.0
  0
LINE
  8
0
 10
1727.0
 20
760.0
 30
0.0
 11
1727.0
 21
766.5
 31
0.0
  0
LINE
  8
0
 10
1727.0
 20
618.4999999999997726
 30
0.0
 11
1727.0
 21
583.5
 31
0.0
  0
LINE
  8
0
 10
1148.0
 20
760.0
 30
0.0
 11
1060.0
 21
760.0
 31
0.0
  0
LINE
  8
0
 10
1050.0
 20
-359.5
 30
0.0
 11
1050.0
 21
-380.0
 31
0.0
  0
LINE
  8
0
 10
1148.0
 20
583.5
 30
0.0
 11
1228.0
 21
583.5
 31
0.0
  0
LINE
  8
0
 10
1148.0
 20
639.0
 30
0.0
 11
1092.0
 21
639.0
 31
0.0
  0
LINE
  8
0
 10
1469.0
 20
389.5
 30
0.0
 11
1458.75
 21
389.5
 31
0.0
  0
LINE
  8
0
 10
1469.0
 20
-220.5
 30
0.0
 11
1458.75
 21
-220.5
 31
0.0
  0
LINE
  8
0
 10
1148.0
 20
-366.0
 30
0.0
 11
1228.0
 21
-366.0
 31
0.0
  0
LINE
  8
0
 10
1148.0
 20
-310.5
 30
0.0
 11
1092.0
 21
-310.5
 31
0.0
  0
LINE
  8
0
 10
1050.0
 20
-380.0
 30
0.0
 11
1272.0
 21
-380.0
 31
0.0
  0
LINE
  8
0
 10
1905.0
 20
-359.5
 30
0.0
 11
1905.0
 21
-380.0
 31
0.0
  0
LINE
  8
0
 10
1905.0
 20
-380.0
 30
0.0
 11
1683.0
 21
-380.0
 31
0.0
  0
LINE
  8
0
 10
720.0
 20
129.5
 30
0.0
 11
762.5
 21
129.5
 31
0.0
  0
LINE
  8
0
 10
762.5
 20
129.5
 30
0.0
 11
762.5
 21
123.0
 31
0.0
  0
LINE
  8
0
 10
720.0
 20
129.5
 30
0.0
 11
720.0
 21
123.0
 31
0.0
  0
CIRCLE
  8
0
 10
1168.75
 20
675.0
 30
0.0
 40
11.75
  0
LINE
  8
0
 10
1168.75
 20
686.75
 30
0.0
 11
1215.023913878635085
 21
686.75
 31
0.0
  0
LINE
  8
0
 10
1168.75
 20
663.25
 30
0.0
 11
1261.5
 21
663.25
 31
0.0
  0
LINE
  8
0
 10
1148.0
 20
583.5
 30
0.0
 11
1148.0
 21
766.5
 31
0.0
  0
LINE
  8
0
 10
1148.0
 20
766.5
 30
0.0
 11
1228.0
 21
766.5
 31
0.0
  0
CIRCLE
  8
0
 10
1168.75
 20
-274.5
 30
0.0
 40
11.75
  0
LINE
  8
0
 10
1168.75
 20
-262.75
 30
0.0
 11
1215.023913878635085
 21
-262.75
 31
0.0
  0
LINE
  8
0
 10
1168.75
 20
-286.25
 30
0.0
 11
1261.5
 21
-286.25
 31
0.0
  0
LINE
  8
0
 10
1148.0
 20
-366.0
 30
0.0
 11
1148.0
 21
-183.0
 31
0.0
  0
LINE
  8
0
 10
1148.0
 20
-183.0
 30
0.0
 11
1228.0
 21
-183.0
 31
0.0
  0
LINE
  8
0
 10
1497.75
 20
-197.0
 30
0.0
 11
1458.75
 21
-197.0
 31
0.0
  0
LINE
  8
0
 10
1458.75
 20
-197.0
 30
0.0
 11
1458.75
 21
-220.5
 31
0.0
  0
LINE
  8
0
 10
1482.25
 20
733.0
 30
0.0
 11
1482.25
 21
709.0
 31
0.0
  0
LINE
  8
0
 10
1458.75
 20
733.0
 30
0.0
 11
1482.25
 21
733.0
 31
0.0
  0
LINE
  8
0
 10
1458.75
 20
733.0
 30
0.0
 11
1458.75
 21
709.0
 31
0.0
  0
LINE
  8
0
 10
1472.0
 20
742.0
 30
0.0
 11
1472.0
 21
733.0
 31
0.0
  0
LINE
  8
0
 10
1497.75
 20
413.0
 30
0.0
 11
1458.75
 21
413.0
 31
0.0
  0
LINE
  8
0
 10
1458.75
 20
413.0
 30
0.0
 11
1458.75
 21
389.5
 31
0.0
  0
LINE
  8
0
 10
1458.75
 20
123.0
 30
0.0
 11
1458.75
 21
99.0
 31
0.0
  0
LINE
  8
0
 10
1458.75
 20
123.0
 30
0.0
 11
1482.25
 21
123.0
 31
0.0
  0
LINE
  8
0
 10
1482.25
 20
123.0
 30
0.0
 11
1482.25
 21
99.0
 31
0.0
  0
LINE
  8
0
 10
1472.0
 20
132.0
 30
0.0
 11
1472.0
 21
123.0
 31
0.0
  0
LINE
  8
0
 10
1157.0
 20
413.0
 30
0.0
 11
1157.0
 21
392.0
 31
0.0
  0
LINE
  8
0
 10
1261.5
 20
413.0
 30
0.0
 11
1157.0
 21
413.0
 31
0.0
  0
LINE
  8
0
 10
1261.5
 20
123.0
 30
0.0
 11
1157.0
 21
123.0
 31
0.0
  0
LINE
  8
0
 10
1157.0
 20
123.0
 30
0.0
 11
1157.0
 21
102.0
 31
0.0
  0
LINE
  8
0
 10
1740.5
 20
413.0
 30
0.0
 11
1798.0
 21
413.0
 31
0.0
  0
LINE
  8
0
 10
1798.0
 20
413.0
 30
0.0
 11
1798.0
 21
392.0
 31
0.0
  0
LINE
  8
0
 10
1740.5
 20
123.0
 30
0.0
 11
1798.0
 21
123.0
 31
0.0
  0
LINE
  8
0
 10
1798.0
 20
123.0
 30
0.0
 11
1798.0
 21
102.0
 31
0.0
  0
LINE
  8
0
 10
60.0
 20
10.0
 30
0.0
 11
172.0
 21
10.0
 31
0.0
  0
CIRCLE
  8
0
 10
60.0
 20
966.0
 30
0.0
 40
13.5
  0
CIRCLE
  8
0
 10
172.0
 20
966.0
 30
0.0
 40
13.5
  0
CIRCLE
  8
0
 10
116.0
 20
966.0
 30
0.0
 40
13.5
  0
CIRCLE
  8
0
 10
60.0
 20
966.0
 30
0.0
 40
2.5
  0
CIRCLE
  8
0
 10
116.0
 20
966.0
 30
0.0
 40
2.5
  0
CIRCLE
  8
0
 10
172.0
 20
966.0
 30
0.0
 40
2.5
  0
CIRCLE
  8
0
 10
204.5
 20
989.5
 30
0.0
 40
20.0
  0
CIRCLE
  8
0
 10
27.5
 20
989.5
 30
0.0
 40
20.0
  0
CIRCLE
  8
0
 10
27.5
 20
989.5
 30
0.0
 40
2.5
  0
CIRCLE
  8
0
 10
204.5
 20
989.5
 30
0.0
 40
2.5
  0
ARC
  8
0
 10
60.0
 20
966.0
 30
0.0
 40
16.0
 50
243.4572475328227483
 51
270.0
  0
LINE
  8
0
 10
60.0
 20
950.0
 30
0.0
 11
171.9999999999999432
 21
950.0
 31
0.0
  0
ARC
  8
0
 10
171.9999999999999716
 20
966.0
 30
0.0
 40
16.0
 50
269.9999999999998863
 51
296.5427524671773085
  0
LINE
  8
0
 10
60.0
 20
952.5
 30
0.0
 11
171.9999999999999432
 21
952.5
 31
0.0
  0
LINE
  8
0
 10
213.437309263653475
 20
971.6079765502664713
 30
0.0
 11
178.0326837529660509
 21
953.9228841714298142
 31
0.0
  0
LINE
  8
0
 10
18.5626907363465392
 20
971.6079765502664713
 30
0.0
 11
53.9673162470339136
 21
953.9228841714299278
 31
0.0
  0
LINE
  8
0
 10
27.5000000000000036
 20
1009.5
 30
0.0
 11
204.5
 21
1009.5
 31
0.0
  0
ARC
  8
0
 10
27.5000000000000036
 20
989.5
 30
0.0
 40
20.0
 50
90.0
 51
243.4572475328226915
  0
LINE
  8
0
 10
214.55447292161017
 20
969.3714736190497661
 30
0.0
 11
179.1498474109227459
 21
951.6863812402132226
 31
0.0
  0
ARC
  8
0
 10
204.5000000000000284
 20
989.5
 30
0.0
 40
22.5
 50
296.5427524671772517
 51
90.0
  0
LINE
  8
0
 10
27.5
 20
1012.0
 30
0.0
 11
204.5000000000000284
 21
1012.0
 31
0.0
  0
LINE
  8
0
 10
17.4455270783898513
 20
969.3714736190497661
 30
0.0
 11
52.8501525890772328
 21
951.6863812402132226
 31
0.0
  0
ARC
  8
0
 10
27.5
 20
989.5
 30
0.0
 40
22.5
 50
90.0
 51
243.4572475328226915
  0
LINE
  8
0
 10
320.0
 20
950.0
 30
0.0
 11
320.0
 21
1012.0
 31
0.0
  0
LINE
  8
0
 10
340.5
 20
950.0
 30
0.0
 11
320.0
 21
950.0
 31
0.0
  0
LINE
  8
0
 10
60.0
 20
950.0
 30
0.0
 11
172.0
 21
950.0
 31
0.0
  0
LINE
  8
0
 10
320.0
 20
1012.0
 30
0.0
 11
340.5
 21
1012.0
 31
0.0
  0
LINE
  8
0
 10
340.5
 20
1012.0
 30
0.0
 11
340.5
 21
950.0
 31
0.0
  0
LINE
  8
0
 10
693.0
 20
-169.0
 30
0.0
 11
693.0
 21
-189.5
 31
0.0
  0
LINE
  8
0
 10
227.0
 20
855.0
 30
0.0
 11
227.0
 21
875.5
 31
0.0
  0
LINE
  8
0
 10
5.0000000000001137
 20
875.5
 30
0.0
 11
5.0
 21
855.0
 31
0.0
  0
LINE
  8
0
 10
172.0
 20
875.5
 30
0.0
 11
172.0
 21
855.0
 31
0.0
  0
LINE
  8
0
 10
60.0
 20
875.5
 30
0.0
 11
60.0
 21
855.0
 31
0.0
  0
LINE
  8
0
 10
227.0
 20
875.5
 30
0.0
 11
5.0
 21
875.5
 31
0.0
  0
LINE
  8
0
 10
5.0
 20
855.0
 30
0.0
 11
227.0
 21
855.0
 31
0.0
  0
LINE
  8
0
 10
227.0
 20
1086.5
 30
0.0
 11
227.0
 21
1107.0
 31
0.0
  0
LINE
  8
0
 10
5.0000000000001137
 20
1107.0
 30
0.0
 11
5.0
 21
1086.5
 31
0.0
  0
LINE
  8
0
 10
227.0
 20
1107.0
 30
0.0
 11
5.0
 21
1107.0
 31
0.0
  0
LINE
  8
0
 10
5.0
 20
1086.5
 30
0.0
 11
227.0
 21
1086.5
 31
0.0
  0
LINE
  8
0
 10
227.0
 20
1107.0
 30
0.0
 11
5.0
 21
1107.0
 31
0.0
  0
LINE
  8
0
 10
5.0
 20
1086.5
 30
0.0
 11
227.0
 21
1086.5
 31
0.0
  0
LINE
  8
0
 10
1148.0
 20
590.0
 30
0.0
 11
1060.0
 21
590.0
 31
0.0
  0
LINE
  8
0
 10
1060.0
 20
760.0
 30
0.0
 11
1060.0
 21
590.0
 31
0.0
  0
ENDSEC
  0
EOF
