999
dxflib 2.0.4.0
  0
SECTION
  2
HEADER
  9
$ACADVER
  1
AC1015
  9
$HANDSEED
  5
FFFF
  9
$DIMASZ
 40
2.5
  9
$DIMGAP
 40
0.625
  9
$INSUNITS
 70
4
  9
$DIMEXO
 40
0.625
  9
$DIMTXT
 40
2.5
  9
$GRIDMODE
 70
1
  9
$DIMSTYLE
  2
Standard
  9
$PLIMMIN
 10
0.0
 20
0.0
  9
$PLIMMAX
 10
210.0
 20
297.0
  9
$DIMEXE
 40
1.25
  9
$PINSBASE
 10
37.5
 20
97.0
 30
0.0
  0
ENDSEC
  0
SECTION
  2
TABLES
  0
TABLE
  2
VPORT
  5
8
100
AcDbSymbolTable
 70
1
  0
VPORT
  5
30
100
AcDbSymbolTableRecord
100
AcDbViewportTableRecord
  2
*Active
 70
0
 10
0.0
 20
0.0
 11
1.0
 21
1.0
 12
286.3055555555554861
 22
148.5
 13
0.0
 23
0.0
 14
10.0
 24
10.0
 15
10.0
 25
10.0
 16
0.0
 26
0.0
 36
1.0
 17
0.0
 27
0.0
 37
0.0
 40
297.0
 41
1.92798353909465
 42
50.0
 43
0.0
 44
0.0
 50
0.0
 51
0.0
 71
0
 72
100
 73
1
 74
3
 75
1
 76
1
 77
0
 78
0
281
0
 65
1
110
0.0
120
0.0
130
0.0
111
1.0
121
0.0
131
0.0
112
0.0
122
1.0
132
0.0
 79
0
146
0.0
  0
ENDTAB
  0
TABLE
  2
LTYPE
  5
5
100
AcDbSymbolTable
 70
21
  0
LTYPE
  5
14
100
AcDbSymbolTableRecord
100
AcDbLinetypeTableRecord
  2
ByBlock
 70
0
  3

 72
65
 73
0
 40
0.0
  0
LTYPE
  5
15
100
AcDbSymbolTableRecord
100
AcDbLinetypeTableRecord
  2
ByLayer
 70
0
  3

 72
65
 73
0
 40
0.0
  0
LTYPE
  5
16
100
AcDbSymbolTableRecord
100
AcDbLinetypeTableRecord
  2
CONTINUOUS
 70
0
  3
Solid line
 72
65
 73
0
 40
0.0
  0
LTYPE
  5
31
100
AcDbSymbolTableRecord
100
AcDbLinetypeTableRecord
  2
DOT
 70
0
  3
Dot . . . . . . . . . . . . . . . . . . . . . .
 72
65
 73
2
 40
6.3499999999999996
 49
0.0
 74
0
 49
-6.3499999999999996
 74
0
  0
LTYPE
  5
32
100
AcDbSymbolTableRecord
100
AcDbLinetypeTableRecord
  2
DOT2
 70
0
  3
Dot (.5x) .....................................
 72
65
 73
2
 40
3.1749999999999998
 49
0.0
 74
0
 49
-3.1749999999999998
 74
0
  0
LTYPE
  5
33
100
AcDbSymbolTableRecord
100
AcDbLinetypeTableRecord
  2
DOTX2
 70
0
  3
Dot (2x) .  .  .  .  .  .  .  .  .  .  .  .  .
 72
65
 73
2
 40
12.6999999999999993
 49
0.0
 74
0
 49
-12.6999999999999993
 74
0
  0
LTYPE
  5
34
100
AcDbSymbolTableRecord
100
AcDbLinetypeTableRecord
  2
DASHED
 70
0
  3
Dashed __ __ __ __ __ __ __ __ __ __ __ __ __ _
 72
65
 73
2
 40
19.0500000000000007
 49
12.6999999999999993
 74
0
 49
-6.3499999999999996
 74
0
  0
LTYPE
  5
35
100
AcDbSymbolTableRecord
100
AcDbLinetypeTableRecord
  2
DASHED2
 70
0
  3
Dashed (.5x) _ _ _ _ _ _ _ _ _ _ _ _ _ _ _ _ _
 72
65
 73
2
 40
9.5250000000000004
 49
6.3499999999999996
 74
0
 49
-3.1749999999999998
 74
0
  0
LTYPE
  5
36
100
AcDbSymbolTableRecord
100
AcDbLinetypeTableRecord
  2
DASHEDX2
 70
0
  3
Dashed (2x) ____  ____  ____  ____  ____  ___
 72
65
 73
2
 40
38.1000000000000014
 49
25.3999999999999986
 74
0
 49
-12.6999999999999993
 74
0
  0
LTYPE
  5
37
100
AcDbSymbolTableRecord
100
AcDbLinetypeTableRecord
  2
DASHDOT
 70
0
  3
Dash dot __ . __ . __ . __ . __ . __ . __ . __
 72
65
 73
4
 40
25.3999999999999986
 49
12.6999999999999993
 74
0
 49
-6.3499999999999996
 74
0
 49
0.0
 74
0
 49
-6.3499999999999996
 74
0
  0
LTYPE
  5
38
100
AcDbSymbolTableRecord
100
AcDbLinetypeTableRecord
  2
DASHDOT2
 70
0
  3
Dash dot (.5x) _._._._._._._._._._._._._._._.
 72
65
 73
4
 40
12.6999999999999993
 49
6.3499999999999996
 74
0
 49
-3.1749999999999998
 74
0
 49
0.0
 74
0
 49
-3.1749999999999998
 74
0
  0
LTYPE
  5
39
100
AcDbSymbolTableRecord
100
AcDbLinetypeTableRecord
  2
DASHDOTX2
 70
0
  3
Dash dot (2x) ____  .  ____  .  ____  .  ___
 72
65
 73
4
 40
50.7999999999999972
 49
25.3999999999999986
 74
0
 49
-12.6999999999999993
 74
0
 49
0.0
 74
0
 49
-12.6999999999999993
 74
0
  0
LTYPE
  5
3A
100
AcDbSymbolTableRecord
100
AcDbLinetypeTableRecord
  2
DIVIDE
 70
0
  3
Divide ____ . . ____ . . ____ . . ____ . . ____
 72
65
 73
6
 40
31.75
 49
12.6999999999999993
 74
0
 49
-6.3499999999999996
 74
0
 49
0.0
 74
0
 49
-6.3499999999999996
 74
0
 49
0.0
 74
0
 49
-6.3499999999999996
 74
0
  0
LTYPE
  5
3B
100
AcDbSymbolTableRecord
100
AcDbLinetypeTableRecord
  2
DIVIDE2
 70
0
  3
Divide (.5x) __..__..__..__..__..__..__..__.._
 72
65
 73
6
 40
15.875
 49
6.3499999999999996
 74
0
 49
-3.1749999999999998
 74
0
 49
0.0
 74
0
 49
-3.1749999999999998
 74
0
 49
0.0
 74
0
 49
-3.1749999999999998
 74
0
  0
LTYPE
  5
3C
100
AcDbSymbolTableRecord
100
AcDbLinetypeTableRecord
  2
DIVIDEX2
 70
0
  3
Divide (2x) ________  .  .  ________  .  .  _
 72
65
 73
6
 40
63.5
 49
25.3999999999999986
 74
0
 49
-12.6999999999999993
 74
0
 49
0.0
 74
0
 49
-12.6999999999999993
 74
0
 49
0.0
 74
0
 49
-12.6999999999999993
 74
0
  0
LTYPE
  5
3D
100
AcDbSymbolTableRecord
100
AcDbLinetypeTableRecord
  2
CENTER
 70
0
  3
Center ____ _ ____ _ ____ _ ____ _ ____ _ ____
 72
65
 73
4
 40
50.7999999999999972
 49
31.75
 74
0
 49
-6.3499999999999996
 74
0
 49
6.3499999999999996
 74
0
 49
-6.3499999999999996
 74
0
  0
LTYPE
  5
3E
100
AcDbSymbolTableRecord
100
AcDbLinetypeTableRecord
  2
CENTER2
 70
0
  3
Center (.5x) ___ _ ___ _ ___ _ ___ _ ___ _ ___
 72
65
 73
4
 40
28.5749999999999993
 49
19.0500000000000007
 74
0
 49
-3.1749999999999998
 74
0
 49
3.1749999999999998
 74
0
 49
-3.1749999999999998
 74
0
  0
LTYPE
  5
3F
100
AcDbSymbolTableRecord
100
AcDbLinetypeTableRecord
  2
CENTERX2
 70
0
  3
Center (2x) ________  __  ________  __  _____
 72
65
 73
4
 40
101.5999999999999943
 49
63.5
 74
0
 49
-12.6999999999999993
 74
0
 49
12.6999999999999993
 74
0
 49
-12.6999999999999993
 74
0
  0
LTYPE
  5
40
100
AcDbSymbolTableRecord
100
AcDbLinetypeTableRecord
  2
BORDER
 70
0
  3
Border __ __ . __ __ . __ __ . __ __ . __ __ .
 72
65
 73
6
 40
44.4500000000000028
 49
12.6999999999999993
 74
0
 49
-6.3499999999999996
 74
0
 49
12.6999999999999993
 74
0
 49
-6.3499999999999996
 74
0
 49
0.0
 74
0
 49
-6.3499999999999996
 74
0
  0
LTYPE
  5
41
100
AcDbSymbolTableRecord
100
AcDbLinetypeTableRecord
  2
BORDER2
 70
0
  3
Border (.5x) __.__.__.__.__.__.__.__.__.__.__.
 72
65
 73
6
 40
22.2250000000000014
 49
6.3499999999999996
 74
0
 49
-3.1749999999999998
 74
0
 49
6.3499999999999996
 74
0
 49
-3.1749999999999998
 74
0
 49
0.0
 74
0
 49
-3.1749999999999998
 74
0
  0
LTYPE
  5
42
100
AcDbSymbolTableRecord
100
AcDbLinetypeTableRecord
  2
BORDERX2
 70
0
  3
Border (2x) ____  ____  .  ____  ____  .  ___
 72
65
 73
6
 40
88.9000000000000057
 49
25.3999999999999986
 74
0
 49
-12.6999999999999993
 74
0
 49
25.3999999999999986
 74
0
 49
-12.6999999999999993
 74
0
 49
0.0
 74
0
 49
-12.6999999999999993
 74
0
  0
ENDTAB
  0
TABLE
  2
LAYER
  5
2
100
AcDbSymbolTable
 70
1
  0
LAYER
  5
10
100
AcDbSymbolTableRecord
100
AcDbLayerTableRecord
  2
0
 70
0
 62
7
  6
CONTINUOUS
370
0
390
F
  0
ENDTAB
  0
TABLE
  2
STYLE
  5
3
100
AcDbSymbolTable
 70
1
  0
STYLE
  5
11
100
AcDbSymbolTableRecord
100
AcDbTextStyleTableRecord
  2
Standard
 70
0
 40
0.0
 41
1.0
 50
0.0
 71
0
 42
2.5
  3
txt
  4

  0
ENDTAB
  0
TABLE
  2
VIEW
  5
6
100
AcDbSymbolTable
 70
0
  0
ENDTAB
  0
TABLE
  2
UCS
  5
7
100
AcDbSymbolTable
 70
0
  0
ENDTAB
  0
TABLE
  2
APPID
  5
9
100
AcDbSymbolTable
 70
1
  0
APPID
  5
12
100
AcDbSymbolTableRecord
100
AcDbRegAppTableRecord
  2
ACAD
 70
0
  0
ENDTAB
  0
TABLE
  2
DIMSTYLE
  5
A
100
AcDbSymbolTable
 70
1
100
AcDbDimStyleTable
 71
0
  0
DIMSTYLE
105
27
100
AcDbSymbolTableRecord
100
AcDbDimStyleTableRecord
  2
Standard
 41
2.5
 42
0.625
 43
3.75
 44
1.25
 70
0
 73
0
 74
0
 77
1
 78
8
140
2.5
141
2.5
143
0.03937007874016
147
0.625
171
3
172
1
271
2
272
2
274
3
278
44
283
0
284
8
340
11
  0
ENDTAB
  0
TABLE
  2
BLOCK_RECORD
  5
1
100
AcDbSymbolTable
 70
1
  0
BLOCK_RECORD
  5
1F
100
AcDbSymbolTableRecord
100
AcDbBlockTableRecord
  2
*Model_Space
340
22
  0
BLOCK_RECORD
  5
1B
100
AcDbSymbolTableRecord
100
AcDbBlockTableRecord
  2
*Paper_Space
340
1E
  0
BLOCK_RECORD
  5
23
100
AcDbSymbolTableRecord
100
AcDbBlockTableRecord
  2
*Paper_Space0
340
26
  0
ENDTAB
  0
ENDSEC
  0
SECTION
  2
BLOCKS
  0
BLOCK
  5
20
100
AcDbEntity
  8
0
100
AcDbBlockBegin
  2
*Model_Space
 70
0
 10
0.0
 20
0.0
 30
0.0
  3
*Model_Space
  1

  0
ENDBLK
  5
21
100
AcDbEntity
  8
0
100
AcDbBlockEnd
  0
BLOCK
  5
1C
100
AcDbEntity
 67
1
  8
0
100
AcDbBlockBegin
  2
*Paper_Space
 70
0
 10
0.0
 20
0.0
 30
0.0
  3
*Paper_Space
  1

  0
ENDBLK
  5
1D
100
AcDbEntity
 67
1
  8
0
100
AcDbBlockEnd
  0
BLOCK
  5
24
100
AcDbEntity
  8
0
100
AcDbBlockBegin
  2
*Paper_Space0
 70
0
 10
0.0
 20
0.0
 30
0.0
  3
*Paper_Space0
  1

  0
ENDBLK
  5
25
100
AcDbEntity
  8
0
100
AcDbBlockEnd
  0
ENDSEC
  0
SECTION
  2
ENTITIES
  0
HATCH
  5
43
  8
0
 62
256
370
-1
  6
ByLayer
100
AcDbEntity
100
AcDbHatch
 10
0.0
 20
0.0
 30
0.0
210
0.0
220
0.0
230
1.0
  2
SOLID
 70
1
 71
0
 91
1
 92
1
 93
4
 72
1
 10
98.0
 20
42.5
 11
98.0
 21
45.5
 72
1
 10
98.0
 20
45.5
 11
90.8360264185009356
 21
45.5
 72
1
 10
90.8360264185009356
 20
45.5
 11
89.6121383086225478
 21
42.5
 72
1
 10
89.6121383086225478
 20
42.5
 11
98.0
 21
42.5
 97
0
 75
0
 76
1
 98
0
  0
HATCH
  5
44
  8
0
 62
256
370
-1
  6
ByLayer
100
AcDbEntity
100
AcDbHatch
 10
0.0
 20
0.0
 30
0.0
210
0.0
220
0.0
230
1.0
  2
SOLID
 70
1
 71
0
 91
1
 92
1
 93
12
 72
2
 10
90.5
 20
50.25
 40
0.8
 50
0.0
 51
360.0
 73
1
 72
2
 10
50.0
 20
50.0
 40
0.4
 50
0.0
 51
360.0
 73
1
 72
1
 10
87.5523541910777112
 20
48.4941964849173317
 11
51.0
 21
48.0132444560873566
 72
1
 10
51.0
 20
48.0132444560873566
 11
51.0
 21
49.5417424305044136
 72
2
 10
50.0
 20
50.0
 40
1.1000000000000001
 50
335.3800226713427719
 51
204.6199773286571997
 73
1
 72
1
 10
49.0
 20
49.5417424305044136
 11
49.0
 21
47.0
 72
2
 10
50.0
 20
47.0
 40
1.0
 50
180.0
 51
270.753848333070664
 73
1
 72
1
 10
50.0131567558702841
 20
46.0000865538583028
 11
87.6655655134286746
 21
46.4955129848788076
 72
2
 10
87.6418833528621661
 20
48.2953571879338668
 40
1.8
 50
270.7538483330706072
 51
317.7263109939063952
 73
1
 72
1
 10
88.9737754849748654
 20
47.0845461587405083
 11
90.9316826737533859
 21
49.2382440663968737
 72
2
 10
90.5
 20
50.25
 40
1.1000000000000001
 50
293.106333665248826
 51
162.3462883225636517
 73
1
 72
1
 10
89.4518025269615009
 20
50.5835896543894989
 11
87.5523541910777112
 21
48.4941964849173317
 97
0
 75
0
 76
1
 98
0
  0
HATCH
  5
45
  8
0
 62
256
370
-1
  6
ByLayer
100
AcDbEntity
100
AcDbHatch
 10
0.0
 20
0.0
 30
0.0
210
0.0
220
0.0
230
1.0
  2
SOLID
 70
1
 71
0
 91
1
 92
1
 93
6
 72
2
 10
87.0
 20
50.25
 40
0.8
 50
0.0
 51
360.0
 73
1
 72
2
 10
53.0
 20
50.0
 40
0.4
 50
0.0
 51
360.0
 73
1
 72
2
 10
53.0
 20
50.0
 40
1.1000000000000001
 50
65.8013075755229977
 51
295.0412622328221346
 73
1
 72
1
 10
53.4655979243930162
 20
49.0033964816433567
 11
86.5491075604337396
 21
49.2466575819083587
 72
2
 10
87.0
 20
50.25
 40
1.1000000000000001
 50
245.801307575511828
 51
115.0412622328257868
 73
1
 72
1
 10
86.5344020756069057
 20
51.2466035183566433
 11
53.4508924395660259
 21
51.0033424180916413
 97
0
 75
0
 76
1
 98
0
  0
HATCH
  5
46
  8
0
 62
256
370
-1
  6
ByLayer
100
AcDbEntity
100
AcDbHatch
 10
0.0
 20
0.0
 30
0.0
210
0.0
220
0.0
230
1.0
  2
SOLID
 70
1
 71
0
 91
1
 92
1
 93
6
 72
2
 10
87.0
 20
52.75
 40
0.8
 50
0.0
 51
360.0
 73
1
 72
2
 10
53.0
 20
53.0
 40
0.4
 50
0.0
 51
360.0
 73
1
 72
2
 10
53.0
 20
53.0
 40
1.1000000000000001
 50
64.9587377671742132
 51
294.1986924244769739
 73
1
 72
1
 10
53.4508924395660259
 20
51.9966575819083587
 11
86.5344020756069057
 21
51.7533964816433567
 72
2
 10
87.0
 20
52.75
 40
1.1000000000000001
 50
244.9587377671742274
 51
114.1986924244834256
 73
1
 72
1
 10
86.5491075604338391
 20
53.7533424180916413
 11
53.4655979243930943
 21
53.9966035183566433
 97
0
 75
0
 76
1
 98
0
  0
HATCH
  5
47
  8
0
 62
256
370
-1
  6
ByLayer
100
AcDbEntity
100
AcDbHatch
 10
0.0
 20
0.0
 30
0.0
210
0.0
220
0.0
230
1.0
  2
SOLID
 70
1
 71
0
 91
1
 92
1
 93
12
 72
2
 10
90.5
 20
52.75
 40
0.8
 50
0.0
 51
360.0
 73
1
 72
2
 10
50.0
 20
53.0
 40
0.4
 50
0.0
 51
360.0
 73
1
 72
1
 10
51.0
 20
54.9867555439126434
 11
87.5523541910777112
 21
54.5058035150826683
 72
1
 10
87.5523541910777112
 20
54.5058035150826683
 11
89.4518025269615009
 21
52.4164103456105011
 72
2
 10
90.5
 20
52.75
 40
1.1000000000000001
 50
197.6537116774363483
 51
66.8936663347511313
 73
1
 72
1
 10
90.9316826737533859
 20
53.7617559336031192
 11
88.9737754849748654
 21
55.9154538412594917
 72
2
 10
87.6418833528621661
 20
54.7046428120661332
 40
1.8
 50
42.2736890060936332
 51
89.246151666929407
 73
1
 72
1
 10
87.6655655134286746
 20
56.5044870151211924
 11
50.0131567558702841
 21
56.9999134461416972
 72
2
 10
50.0
 20
56.0
 40
1.0
 50
89.2461516669293218
 51
180.0
 73
1
 72
1
 10
49.0
 20
56.0
 11
49.0
 21
53.4582575694955864
 72
2
 10
50.0
 20
53.0
 40
1.1000000000000001
 50
155.3800226713428003
 51
24.6199773286572139
 73
1
 72
1
 10
51.0
 20
53.4582575694955864
 11
51.0
 21
54.9867555439126434
 97
0
 75
0
 76
1
 98
0
  0
HATCH
  5
48
  8
0
 62
256
370
-1
  6
ByLayer
100
AcDbEntity
100
AcDbHatch
 10
0.0
 20
0.0
 30
0.0
210
0.0
220
0.0
230
1.0
  2
SOLID
 70
1
 71
0
 91
1
 92
1
 93
4
 72
1
 10
98.0
 20
42.5
 11
98.0
 21
45.5
 72
1
 10
98.0
 20
45.5
 11
90.8360264185009356
 21
45.5
 72
1
 10
90.8360264185009356
 20
45.5
 11
89.6121383086225478
 21
42.5
 72
1
 10
89.6121383086225478
 20
42.5
 11
98.0
 21
42.5
 97
0
 75
0
 76
1
 98
0
  0
HATCH
  5
49
  8
0
 62
256
370
-1
  6
ByLayer
100
AcDbEntity
100
AcDbHatch
 10
0.0
 20
0.0
 30
0.0
210
0.0
220
0.0
230
1.0
  2
SOLID
 70
1
 71
0
 91
1
 92
1
 93
42
 72
1
 10
90.5
 20
55.5
 11
93.0
 21
55.5
 72
1
 10
93.0
 20
55.5
 11
93.0
 21
47.5
 72
1
 10
93.0
 20
47.5
 11
90.5
 21
47.5
 72
1
 10
90.5
 20
47.5
 11
90.5
 21
48.0
 72
1
 10
90.5
 20
48.0
 11
92.5
 21
48.0
 72
1
 10
92.5
 20
48.0
 11
92.5
 21
55.0
 72
1
 10
92.5
 20
55.0
 11
90.5
 21
55.0
 72
1
 10
90.5
 20
55.0
 11
90.5
 21
55.5
 72
2
 10
50.0
 20
56.0
 40
1.8
 50
89.246151666929407
 51
180.0
 73
1
 72
1
 10
48.2000000000000028
 20
56.0
 11
48.2000000000000028
 21
47.0
 72
2
 10
50.0
 20
47.0
 40
1.8
 50
180.0
 51
270.7538483330707777
 73
1
 72
1
 10
50.0236821605665156
 20
45.2001557969449408
 11
88.0236821605665511
 21
45.7001557969449408
 72
2
 10
88.0000000000000284
 20
47.5
 40
1.8
 50
270.7538483330710619
 51
337.806372479672234
 73
1
 72
1
 10
89.6666426850755585
 20
46.8200719447734173
 11
89.9710872393295347
 21
47.5663277956066111
 72
2
 10
91.6377299244050789
 20
46.8863997403800283
 40
1.8
 50
202.193627520327567
 51
246.8014094863518721
 73
0
 72
1
 10
90.9286751869625789
 20
48.5408607944125308
 11
90.9090547374425029
 21
48.5324520303325002
 72
2
 10
90.2000000000000028
 20
50.1869130843650026
 40
1.8
 50
293.1985905136481279
 51
0.0
 73
1
 72
1
 10
92.0
 20
50.1869130843650026
 11
92.0
 21
52.8130869156349974
 72
2
 10
90.2000000000000028
 20
52.8130869156349974
 40
1.8
 50
0.0
 51
66.8014094863518437
 73
1
 72
1
 10
90.9090547374425029
 20
54.4675479696674998
 11
90.9286751869625789
 21
54.4591392055874692
 72
2
 10
91.6377299244050789
 20
56.1136002596199717
 40
1.8
 50
113.1985905136481421
 51
157.806372479672433
 73
0
 72
1
 10
89.9710872393295347
 20
55.4336722043933889
 11
89.6666426850755585
 21
56.1799280552265827
 72
2
 10
88.0000000000000284
 20
55.5
 40
1.8
 50
22.1936275203277447
 51
89.246151666929407
 73
1
 72
1
 10
88.0236821605665369
 20
57.2998442030550592
 11
50.0236821605665085
 21
57.7998442030550592
 72
1
 10
98.0
 20
60.5
 11
98.0
 21
46.0
 72
1
 10
98.0
 20
46.0
 11
98.0
 21
60.5
 72
1
 10
98.0
 20
60.5
 11
98.0
 21
46.0
 72
1
 10
98.0
 20
46.0
 11
90.5
 21
46.0
 72
1
 10
90.5
 20
46.0
 11
89.0721305384752213
 21
42.5
 72
1
 10
89.0721305384752213
 20
42.5
 11
90.5
 21
46.0
 72
1
 10
90.5
 20
46.0
 11
89.0721305384752213
 21
42.5
 72
1
 10
89.0721305384752213
 20
42.5
 11
37.0
 21
42.5
 72
1
 10
37.0
 20
42.5
 11
37.0
 21
60.5
 72
1
 10
37.0
 20
60.5
 11
98.0
 21
60.5
 72
1
 10
48.0
 20
58.0
 11
48.0
 21
57.0
 72
1
 10
48.0
 20
57.0
 11
46.0
 21
57.0
 72
1
 10
46.0
 20
57.0
 11
46.0
 21
58.0
 72
1
 10
46.0
 20
58.0
 11
48.0
 21
58.0
 72
1
 10
48.0
 20
46.0
 11
46.0
 21
46.0
 72
1
 10
46.0
 20
46.0
 11
46.0
 21
45.0
 72
1
 10
46.0
 20
45.0
 11
48.0
 21
45.0
 72
1
 10
48.0
 20
45.0
 11
48.0
 21
46.0
 97
0
 75
0
 76
1
 98
0
  0
LINE
  5
4A
100
AcDbEntity
100
AcDbLine
  8
0
 62
256
370
-1
  6
ByLayer
 10
90.5
 20
55.5
 30
0.0
 11
93.0
 21
55.5
 31
0.0
  0
LINE
  5
4B
100
AcDbEntity
100
AcDbLine
  8
0
 62
256
370
-1
  6
ByLayer
 10
93.0
 20
55.5
 30
0.0
 11
93.0
 21
47.5
 31
0.0
  0
LINE
  5
4C
100
AcDbEntity
100
AcDbLine
  8
0
 62
256
370
-1
  6
ByLayer
 10
93.0
 20
47.5
 30
0.0
 11
90.5
 21
47.5
 31
0.0
  0
LINE
  5
4D
100
AcDbEntity
100
AcDbLine
  8
0
 62
256
370
-1
  6
ByLayer
 10
90.5
 20
47.5
 30
0.0
 11
90.5
 21
48.0
 31
0.0
  0
LINE
  5
4E
100
AcDbEntity
100
AcDbLine
  8
0
 62
256
370
-1
  6
ByLayer
 10
90.5
 20
48.0
 30
0.0
 11
92.5
 21
48.0
 31
0.0
  0
LINE
  5
4F
100
AcDbEntity
100
AcDbLine
  8
0
 62
256
370
-1
  6
ByLayer
 10
92.5
 20
48.0
 30
0.0
 11
92.5
 21
55.0
 31
0.0
  0
LINE
  5
50
100
AcDbEntity
100
AcDbLine
  8
0
 62
256
370
-1
  6
ByLayer
 10
92.5
 20
55.0
 30
0.0
 11
90.5
 21
55.0
 31
0.0
  0
LINE
  5
51
100
AcDbEntity
100
AcDbLine
  8
0
 62
256
370
-1
  6
ByLayer
 10
90.5
 20
55.0
 30
0.0
 11
90.5
 21
55.5
 31
0.0
  0
CIRCLE
  5
52
100
AcDbEntity
100
AcDbCircle
  8
0
 62
256
370
-1
  6
ByLayer
 10
87.0
 20
52.75
 30
0.0
 40
0.8
  0
CIRCLE
  5
53
100
AcDbEntity
100
AcDbCircle
  8
0
 62
256
370
-1
  6
ByLayer
 10
90.5
 20
52.75
 30
0.0
 40
0.8
  0
CIRCLE
  5
54
100
AcDbEntity
100
AcDbCircle
  8
0
 62
256
370
-1
  6
ByLayer
 10
90.5
 20
50.25
 30
0.0
 40
0.8
  0
CIRCLE
  5
55
100
AcDbEntity
100
AcDbCircle
  8
0
 62
256
370
-1
  6
ByLayer
 10
87.0
 20
50.25
 30
0.0
 40
0.8
  0
CIRCLE
  5
56
100
AcDbEntity
100
AcDbCircle
  8
0
 62
256
370
-1
  6
ByLayer
 10
50.0
 20
53.0
 30
0.0
 40
0.4
  0
CIRCLE
  5
57
100
AcDbEntity
100
AcDbCircle
  8
0
 62
256
370
-1
  6
ByLayer
 10
53.0
 20
53.0
 30
0.0
 40
0.4
  0
CIRCLE
  5
58
100
AcDbEntity
100
AcDbCircle
  8
0
 62
256
370
-1
  6
ByLayer
 10
50.0
 20
50.0
 30
0.0
 40
0.4
  0
CIRCLE
  5
59
100
AcDbEntity
100
AcDbCircle
  8
0
 62
256
370
-1
  6
ByLayer
 10
53.0
 20
50.0
 30
0.0
 40
0.4
  0
LINE
  5
5A
100
AcDbEntity
100
AcDbLine
  8
0
 62
256
370
-1
  6
ByLayer
 10
87.5523541910777112
 20
48.4941964849173317
 30
0.0
 11
51.0
 21
48.0132444560873566
 31
0.0
  0
LINE
  5
5B
100
AcDbEntity
100
AcDbLine
  8
0
 62
256
370
-1
  6
ByLayer
 10
51.0
 20
54.9867555439126434
 30
0.0
 11
87.5523541910777112
 21
54.5058035150826683
 31
0.0
  0
ARC
  5
5C
100
AcDbEntity
  8
0
 62
256
370
-1
  6
ByLayer
100
AcDbCircle
 10
50.0
 20
56.0
 30
0.0
 40
1.8
100
AcDbArc
 50
89.246151666929407
 51
180.0
  0
LINE
  5
5D
100
AcDbEntity
100
AcDbLine
  8
0
 62
256
370
-1
  6
ByLayer
 10
48.2000000000000028
 20
56.0
 30
0.0
 11
48.2000000000000028
 21
47.0
 31
0.0
  0
ARC
  5
5E
100
AcDbEntity
  8
0
 62
256
370
-1
  6
ByLayer
100
AcDbCircle
 10
50.0
 20
47.0
 30
0.0
 40
1.8
100
AcDbArc
 50
180.0
 51
270.7538483330707777
  0
ARC
  5
5F
100
AcDbEntity
  8
0
 62
256
370
-1
  6
ByLayer
100
AcDbCircle
 10
50.0
 20
56.0
 30
0.0
 40
1.0
100
AcDbArc
 50
89.2461516669293218
 51
180.0
  0
ARC
  5
60
100
AcDbEntity
  8
0
 62
256
370
-1
  6
ByLayer
100
AcDbCircle
 10
50.0
 20
47.0
 30
0.0
 40
1.0
100
AcDbArc
 50
180.0
 51
270.753848333070664
  0
LINE
  5
61
100
AcDbEntity
100
AcDbLine
  8
0
 62
256
370
-1
  6
ByLayer
 10
87.6655655134286746
 20
46.4955129848788076
 30
0.0
 11
50.0131567558702841
 21
46.0000865538583028
 31
0.0
  0
ARC
  5
62
100
AcDbEntity
  8
0
 62
256
370
-1
  6
ByLayer
100
AcDbCircle
 10
87.6418833528621661
 20
48.2953571879338668
 30
0.0
 40
1.8
100
AcDbArc
 50
270.7538483330706072
 51
317.7263109939063952
  0
LINE
  5
63
100
AcDbEntity
100
AcDbLine
  8
0
 62
256
370
-1
  6
ByLayer
 10
87.6655655134286746
 20
56.5044870151211924
 30
0.0
 11
50.0131567558702841
 21
56.9999134461416972
 31
0.0
  0
ARC
  5
64
100
AcDbEntity
  8
0
 62
256
370
-1
  6
ByLayer
100
AcDbCircle
 10
87.6418833528621661
 20
54.7046428120661332
 30
0.0
 40
1.8
100
AcDbArc
 50
42.2736890060936332
 51
89.246151666929407
  0
LINE
  5
65
100
AcDbEntity
100
AcDbLine
  8
0
 62
256
370
-1
  6
ByLayer
 10
49.0
 20
53.4582575694955864
 30
0.0
 11
49.0
 21
56.0
 31
0.0
  0
LINE
  5
66
100
AcDbEntity
100
AcDbLine
  8
0
 62
256
370
-1
  6
ByLayer
 10
49.0
 20
53.4582575694955864
 30
0.0
 11
49.0
 21
56.0
 31
0.0
  0
LINE
  5
67
100
AcDbEntity
100
AcDbLine
  8
0
 62
256
370
-1
  6
ByLayer
 10
49.0
 20
53.4582575694955864
 30
0.0
 11
49.0
 21
56.0
 31
0.0
  0
LINE
  5
68
100
AcDbEntity
100
AcDbLine
  8
0
 62
256
370
-1
  6
ByLayer
 10
49.0
 20
53.4582575694955864
 30
0.0
 11
49.0
 21
56.0
 31
0.0
  0
LINE
  5
69
100
AcDbEntity
100
AcDbLine
  8
0
 62
256
370
-1
  6
ByLayer
 10
49.0
 20
49.5417424305044136
 30
0.0
 11
49.0
 21
47.0
 31
0.0
  0
ARC
  5
6A
100
AcDbEntity
  8
0
 62
256
370
-1
  6
ByLayer
100
AcDbCircle
 10
50.0
 20
50.0
 30
0.0
 40
1.1000000000000001
100
AcDbArc
 50
335.3800226713427719
 51
204.6199773286571997
  0
LINE
  5
6B
100
AcDbEntity
100
AcDbLine
  8
0
 62
256
370
-1
  6
ByLayer
 10
51.0
 20
49.5417424305044136
 30
0.0
 11
51.0
 21
48.0132444560873566
 31
0.0
  0
ARC
  5
6C
100
AcDbEntity
  8
0
 62
256
370
-1
  6
ByLayer
100
AcDbCircle
 10
53.0
 20
50.0
 30
0.0
 40
1.1000000000000001
100
AcDbArc
 50
65.8013075755229977
 51
295.0412622328221346
  0
LINE
  5
6D
100
AcDbEntity
100
AcDbLine
  8
0
 62
256
370
-1
  6
ByLayer
 10
51.0
 20
53.4582575694955864
 30
0.0
 11
51.0
 21
54.9867555439126434
 31
0.0
  0
ARC
  5
6E
100
AcDbEntity
  8
0
 62
256
370
-1
  6
ByLayer
100
AcDbCircle
 10
53.0
 20
53.0
 30
0.0
 40
1.1000000000000001
100
AcDbArc
 50
64.9587377671742132
 51
294.1986924244769739
  0
ARC
  5
6F
100
AcDbEntity
  8
0
 62
256
370
-1
  6
ByLayer
100
AcDbCircle
 10
50.0
 20
53.0
 30
0.0
 40
1.1000000000000001
100
AcDbArc
 50
155.3800226713428003
 51
24.6199773286572139
  0
LINE
  5
70
100
AcDbEntity
100
AcDbLine
  8
0
 62
256
370
-1
  6
ByLayer
 10
49.0
 20
53.4582575694955864
 30
0.0
 11
49.0
 21
56.0
 31
0.0
  0
LINE
  5
71
100
AcDbEntity
100
AcDbLine
  8
0
 62
256
370
-1
  6
ByLayer
 10
86.5344020756069057
 20
51.7533964816433567
 30
0.0
 11
53.4508924395660259
 21
51.9966575819083587
 31
0.0
  0
ARC
  5
72
100
AcDbEntity
  8
0
 62
256
370
-1
  6
ByLayer
100
AcDbCircle
 10
87.0
 20
52.75
 30
0.0
 40
1.1000000000000001
100
AcDbArc
 50
244.9587377671742274
 51
114.1986924244834256
  0
LINE
  5
73
100
AcDbEntity
100
AcDbLine
  8
0
 62
256
370
-1
  6
ByLayer
 10
53.4655979243930943
 20
53.9966035183566433
 30
0.0
 11
86.5491075604338391
 21
53.7533424180916413
 31
0.0
  0
LINE
  5
74
100
AcDbEntity
100
AcDbLine
  8
0
 62
256
370
-1
  6
ByLayer
 10
86.5491075604337396
 20
49.2466575819083587
 30
0.0
 11
53.4655979243930162
 21
49.0033964816433567
 31
0.0
  0
LINE
  5
75
100
AcDbEntity
100
AcDbLine
  8
0
 62
256
370
-1
  6
ByLayer
 10
86.5344020756069057
 20
51.2466035183566433
 30
0.0
 11
53.4508924395660259
 21
51.0033424180916413
 31
0.0
  0
ARC
  5
76
100
AcDbEntity
  8
0
 62
256
370
-1
  6
ByLayer
100
AcDbCircle
 10
87.0
 20
50.25
 30
0.0
 40
1.1000000000000001
100
AcDbArc
 50
245.801307575511828
 51
115.0412622328257868
  0
LINE
  5
77
100
AcDbEntity
100
AcDbLine
  8
0
 62
256
370
-1
  6
ByLayer
 10
90.9316826737533859
 20
49.2382440663968737
 30
0.0
 11
88.9737754849748654
 21
47.0845461587405083
 31
0.0
  0
LINE
  5
78
100
AcDbEntity
100
AcDbLine
  8
0
 62
256
370
-1
  6
ByLayer
 10
89.4518025269615009
 20
50.5835896543894989
 30
0.0
 11
87.5523541910777112
 21
48.4941964849173317
 31
0.0
  0
ARC
  5
79
100
AcDbEntity
  8
0
 62
256
370
-1
  6
ByLayer
100
AcDbCircle
 10
90.5
 20
50.25
 30
0.0
 40
1.1000000000000001
100
AcDbArc
 50
293.106333665248826
 51
162.3462883225636517
  0
ARC
  5
7A
100
AcDbEntity
  8
0
 62
256
370
-1
  6
ByLayer
100
AcDbCircle
 10
91.6377299244050789
 20
46.8863997403800283
 30
0.0
 40
1.8
100
AcDbArc
 50
113.1985905136481563
 51
157.806372479672433
  0
ARC
  5
7B
100
AcDbEntity
  8
0
 62
256
370
-1
  6
ByLayer
100
AcDbCircle
 10
91.6377299244050789
 20
56.1136002596199717
 30
0.0
 40
1.8
100
AcDbArc
 50
202.193627520327567
 51
246.8014094863518721
  0
LINE
  5
7C
100
AcDbEntity
100
AcDbLine
  8
0
 62
256
370
-1
  6
ByLayer
 10
89.6666426850755585
 20
56.1799280552265827
 30
0.0
 11
89.9710872393295347
 21
55.4336722043933889
 31
0.0
  0
LINE
  5
7D
100
AcDbEntity
100
AcDbLine
  8
0
 62
256
370
-1
  6
ByLayer
 10
88.0236821605665369
 20
57.2998442030550592
 30
0.0
 11
50.0236821605665085
 21
57.7998442030550592
 31
0.0
  0
ARC
  5
7E
100
AcDbEntity
  8
0
 62
256
370
-1
  6
ByLayer
100
AcDbCircle
 10
88.0000000000000284
 20
55.5
 30
0.0
 40
1.8
100
AcDbArc
 50
22.1936275203277447
 51
89.246151666929407
  0
LINE
  5
7F
100
AcDbEntity
100
AcDbLine
  8
0
 62
256
370
-1
  6
ByLayer
 10
89.6666426850755585
 20
46.8200719447734173
 30
0.0
 11
89.9710872393295347
 21
47.5663277956066111
 31
0.0
  0
LINE
  5
80
100
AcDbEntity
100
AcDbLine
  8
0
 62
256
370
-1
  6
ByLayer
 10
50.0236821605665156
 20
45.2001557969449408
 30
0.0
 11
88.0236821605665511
 21
45.7001557969449408
 31
0.0
  0
ARC
  5
81
100
AcDbEntity
  8
0
 62
256
370
-1
  6
ByLayer
100
AcDbCircle
 10
88.0000000000000284
 20
47.5
 30
0.0
 40
1.8
100
AcDbArc
 50
270.7538483330710619
 51
337.806372479672234
  0
LINE
  5
82
100
AcDbEntity
100
AcDbLine
  8
0
 62
256
370
-1
  6
ByLayer
 10
90.9090547374425029
 20
54.4675479696674998
 30
0.0
 11
90.9286751869625789
 21
54.4591392055874692
 31
0.0
  0
ARC
  5
83
100
AcDbEntity
  8
0
 62
256
370
-1
  6
ByLayer
100
AcDbCircle
 10
90.2000000000000028
 20
52.8130869156349974
 30
0.0
 40
1.8
100
AcDbArc
 50
0.0
 51
66.8014094863518437
  0
LINE
  5
84
100
AcDbEntity
100
AcDbLine
  8
0
 62
256
370
-1
  6
ByLayer
 10
92.0
 20
50.1869130843650026
 30
0.0
 11
92.0
 21
52.8130869156349974
 31
0.0
  0
LINE
  5
85
100
AcDbEntity
100
AcDbLine
  8
0
 62
256
370
-1
  6
ByLayer
 10
90.9286751869625789
 20
48.5408607944125308
 30
0.0
 11
90.9090547374425029
 21
48.5324520303325002
 31
0.0
  0
ARC
  5
86
100
AcDbEntity
  8
0
 62
256
370
-1
  6
ByLayer
100
AcDbCircle
 10
90.2000000000000028
 20
50.1869130843650026
 30
0.0
 40
1.8
100
AcDbArc
 50
293.1985905136481279
 51
0.0
  0
LINE
  5
87
100
AcDbEntity
100
AcDbLine
  8
0
 62
256
370
-1
  6
ByLayer
 10
89.4518025269615009
 20
52.4164103456105011
 30
0.0
 11
87.5523541910777112
 21
54.5058035150826683
 31
0.0
  0
ARC
  5
88
100
AcDbEntity
  8
0
 62
256
370
-1
  6
ByLayer
100
AcDbCircle
 10
90.5
 20
52.75
 30
0.0
 40
1.1000000000000001
100
AcDbArc
 50
197.6537116774363483
 51
66.8936663347511313
  0
LINE
  5
89
100
AcDbEntity
100
AcDbLine
  8
0
 62
256
370
-1
  6
ByLayer
 10
98.0
 20
60.5
 30
0.0
 11
98.0
 21
46.0
 31
0.0
  0
LINE
  5
8A
100
AcDbEntity
100
AcDbLine
  8
0
 62
256
370
-1
  6
ByLayer
 10
98.0
 20
60.5
 30
0.0
 11
98.0
 21
46.0
 31
0.0
  0
LINE
  5
8B
100
AcDbEntity
100
AcDbLine
  8
0
 62
256
370
-1
  6
ByLayer
 10
98.0
 20
60.5
 30
0.0
 11
98.0
 21
46.0
 31
0.0
  0
LINE
  5
8C
100
AcDbEntity
100
AcDbLine
  8
0
 62
256
370
-1
  6
ByLayer
 10
37.0
 20
60.5
 30
0.0
 11
98.0
 21
60.5
 31
0.0
  0
LINE
  5
8D
100
AcDbEntity
100
AcDbLine
  8
0
 62
256
370
-1
  6
ByLayer
 10
48.0
 20
58.0
 30
0.0
 11
48.0
 21
57.0
 31
0.0
  0
LINE
  5
8E
100
AcDbEntity
100
AcDbLine
  8
0
 62
256
370
-1
  6
ByLayer
 10
48.0
 20
57.0
 30
0.0
 11
46.0
 21
57.0
 31
0.0
  0
LINE
  5
8F
100
AcDbEntity
100
AcDbLine
  8
0
 62
256
370
-1
  6
ByLayer
 10
46.0
 20
58.0
 30
0.0
 11
48.0
 21
58.0
 31
0.0
  0
LINE
  5
90
100
AcDbEntity
100
AcDbLine
  8
0
 62
256
370
-1
  6
ByLayer
 10
46.0
 20
57.0
 30
0.0
 11
46.0
 21
58.0
 31
0.0
  0
LINE
  5
91
100
AcDbEntity
100
AcDbLine
  8
0
 62
256
370
-1
  6
ByLayer
 10
48.0
 20
46.0
 30
0.0
 11
46.0
 21
46.0
 31
0.0
  0
LINE
  5
92
100
AcDbEntity
100
AcDbLine
  8
0
 62
256
370
-1
  6
ByLayer
 10
46.0
 20
46.0
 30
0.0
 11
46.0
 21
45.0
 31
0.0
  0
LINE
  5
93
100
AcDbEntity
100
AcDbLine
  8
0
 62
256
370
-1
  6
ByLayer
 10
48.0
 20
45.0
 30
0.0
 11
48.0
 21
46.0
 31
0.0
  0
LINE
  5
94
100
AcDbEntity
100
AcDbLine
  8
0
 62
256
370
-1
  6
ByLayer
 10
46.0
 20
45.0
 30
0.0
 11
48.0
 21
45.0
 31
0.0
  0
LINE
  5
95
100
AcDbEntity
100
AcDbLine
  8
0
 62
256
370
-1
  6
ByLayer
 10
90.9316826737533859
 20
53.7617559336031192
 30
0.0
 11
88.9737754849748654
 21
55.9154538412594917
 31
0.0
  0
ARC
  5
96
100
AcDbEntity
  8
0
 62
256
370
-1
  6
ByLayer
100
AcDbCircle
 10
90.5
 20
52.75
 30
0.0
 40
1.1000000000000001
100
AcDbArc
 50
197.6537116774363483
 51
66.893666334750975
  0
LINE
  5
97
100
AcDbEntity
100
AcDbLine
  8
0
 62
256
370
-1
  6
ByLayer
 10
98.0
 20
42.5
 30
0.0
 11
98.0
 21
45.5
 31
0.0
  0
LINE
  5
98
100
AcDbEntity
100
AcDbLine
  8
0
 62
256
370
-1
  6
ByLayer
 10
98.0
 20
42.5
 30
0.0
 11
89.6121383086225478
 21
42.5
 31
0.0
  0
LINE
  5
99
100
AcDbEntity
100
AcDbLine
  8
0
 62
256
370
-1
  6
ByLayer
 10
89.6121383086225478
 20
42.5
 30
0.0
 11
90.8360264185009356
 21
45.5
 31
0.0
  0
LINE
  5
9A
100
AcDbEntity
100
AcDbLine
  8
0
 62
256
370
-1
  6
ByLayer
 10
90.8360264185009356
 20
45.5
 30
0.0
 11
98.0
 21
45.5
 31
0.0
  0
LINE
  5
9B
100
AcDbEntity
100
AcDbLine
  8
0
 62
256
370
-1
  6
ByLayer
 10
37.0
 20
42.5
 30
0.0
 11
37.0
 21
60.5
 31
0.0
  0
LINE
  5
9C
100
AcDbEntity
100
AcDbLine
  8
0
 62
256
370
-1
  6
ByLayer
 10
89.0721305384752213
 20
42.5
 30
0.0
 11
90.5
 21
46.0
 31
0.0
  0
LINE
  5
9D
100
AcDbEntity
100
AcDbLine
  8
0
 62
256
370
-1
  6
ByLayer
 10
37.0
 20
42.5
 30
0.0
 11
89.0721305384752213
 21
42.5
 31
0.0
  0
LINE
  5
9E
100
AcDbEntity
100
AcDbLine
  8
0
 62
256
370
-1
  6
ByLayer
 10
89.0721305384752213
 20
42.5
 30
0.0
 11
90.5
 21
46.0
 31
0.0
  0
LINE
  5
9F
100
AcDbEntity
100
AcDbLine
  8
0
 62
256
370
-1
  6
ByLayer
 10
89.0721305384752213
 20
42.5
 30
0.0
 11
90.5
 21
46.0
 31
0.0
  0
LINE
  5
A0
100
AcDbEntity
100
AcDbLine
  8
0
 62
256
370
-1
  6
ByLayer
 10
89.0721305384752213
 20
42.5
 30
0.0
 11
90.5
 21
46.0
 31
0.0
  0
LINE
  5
A1
100
AcDbEntity
100
AcDbLine
  8
0
 62
256
370
-1
  6
ByLayer
 10
98.0
 20
46.0
 30
0.0
 11
90.5
 21
46.0
 31
0.0
  0
ENDSEC
  0
SECTION
  2
OBJECTS
  0
DICTIONARY
  5
C
100
AcDbDictionary
280
0
281
1
  3
ACAD_GROUP
350
D
  3
ACAD_LAYOUT
350
1A
  3
ACAD_MLINESTYLE
350
17
  3
ACAD_PLOTSETTINGS
350
19
  3
ACAD_PLOTSTYLENAME
350
E
  3
AcDbVariableDictionary
350
A2
  0
DICTIONARY
  5
D
100
AcDbDictionary
280
0
281
1
  0
ACDBDICTIONARYWDFLT
  5
E
100
AcDbDictionary
281
1
  3
Normal
350
F
100
AcDbDictionaryWithDefault
340
F
  0
ACDBPLACEHOLDER
  5
F
  0
DICTIONARY
  5
17
100
AcDbDictionary
280
0
281
1
  3
Standard
350
18
  0
MLINESTYLE
  5
18
100
AcDbMlineStyle
  2
STANDARD
 70
0
  3

 62
256
 51
90.0
 52
90.0
 71
2
 49
0.5
 62
256
  6
BYLAYER
 49
-0.5
 62
256
  6
BYLAYER
  0
DICTIONARY
  5
19
100
AcDbDictionary
280
0
281
1
  0
DICTIONARY
  5
1A
100
AcDbDictionary
281
1
  3
Layout1
350
1E
  3
Layout2
350
26
  3
Model
350
22
  0
LAYOUT
  5
1E
100
AcDbPlotSettings
  1

  2
C:\Program Files\AutoCAD 2002\plotters\DWF ePlot (optimized for plotting).pc3
  4

  6

 40
0.0
 41
0.0
 42
0.0
 43
0.0
 44
0.0
 45
0.0
 46
0.0
 47
0.0
 48
0.0
 49
0.0
140
0.0
141
0.0
142
1.0
143
1.0
 70
688
 72
0
 73
0
 74
5
  7

 75
16
147
1.0
148
0.0
149
0.0
100
AcDbLayout
  1
Layout1
 70
1
 71
1
 10
0.0
 20
0.0
 11
420.0
 21
297.0
 12
0.0
 22
0.0
 32
0.0
 14
100000000000000000000.0
 24
100000000000000000000.0
 34
100000000000000000000.0
 15
-100000000000000000000.0
 25
-100000000000000000000.0
 35
-100000000000000000000.0
146
0.0
 13
0.0
 23
0.0
 33
0.0
 16
1.0
 26
0.0
 36
0.0
 17
0.0
 27
1.0
 37
0.0
 76
0
330
1B
  0
LAYOUT
  5
22
100
AcDbPlotSettings
  1

  2
C:\Program Files\AutoCAD 2002\plotters\DWF ePlot (optimized for plotting).pc3
  4

  6

 40
0.0
 41
0.0
 42
0.0
 43
0.0
 44
0.0
 45
0.0
 46
0.0
 47
0.0
 48
0.0
 49
0.0
140
0.0
141
0.0
142
1.0
143
1.0
 70
1712
 72
0
 73
0
 74
0
  7

 75
0
147
1.0
148
0.0
149
0.0
100
AcDbLayout
  1
Model
 70
1
 71
0
 10
0.0
 20
0.0
 11
12.0
 21
9.0
 12
0.0
 22
0.0
 32
0.0
 14
0.0
 24
0.0
 34
0.0
 15
0.0
 25
0.0
 35
0.0
146
0.0
 13
0.0
 23
0.0
 33
0.0
 16
1.0
 26
0.0
 36
0.0
 17
0.0
 27
1.0
 37
0.0
 76
0
330
1F
  0
LAYOUT
  5
26
100
AcDbPlotSettings
  1

  2
C:\Program Files\AutoCAD 2002\plotters\DWF ePlot (optimized for plotting).pc3
  4

  6

 40
0.0
 41
0.0
 42
0.0
 43
0.0
 44
0.0
 45
0.0
 46
0.0
 47
0.0
 48
0.0
 49
0.0
140
0.0
141
0.0
142
1.0
143
1.0
 70
688
 72
0
 73
0
 74
5
  7

 75
16
147
1.0
148
0.0
149
0.0
100
AcDbLayout
  1
Layout2
 70
1
 71
2
 10
0.0
 20
0.0
 11
12.0
 21
9.0
 12
0.0
 22
0.0
 32
0.0
 14
0.0
 24
0.0
 34
0.0
 15
0.0
 25
0.0
 35
0.0
146
0.0
 13
0.0
 23
0.0
 33
0.0
 16
1.0
 26
0.0
 36
0.0
 17
0.0
 27
1.0
 37
0.0
 76
0
330
23
  0
DICTIONARY
  5
A2
100
AcDbDictionary
281
1
  3
DIMASSOC
350
A4
  3
HIDETEXT
350
A3
  0
DICTIONARYVAR
  5
A3
100
DictionaryVariables
280
0
  1
2
  0
DICTIONARYVAR
  5
A4
100
DictionaryVariables
280
0
  1
1
  0
ENDSEC
  0
EOF
