999
dxflib 2.0.4.0
  0
SECTION
  2
HEADER
  9
$ACADVER
  1
AC1009
  9
$DIMASZ
 40
2.5
  9
$DIMGAP
 40
0.625
  9
$DIMEXO
 40
0.625
  9
$DIMTXT
 40
2.5
  9
$GRIDMODE
 70
1
  9
$DIMSTYLE
  2
Standard
  9
$PLIMMIN
 10
0.0
 20
0.0
  9
$PLIMMAX
 10
210.0
 20
297.0
  9
$DIMEXE
 40
1.25
  0
ENDSEC
  0
SECTION
  2
TABLES
  0
TABLE
  2
VPORT
 70
1
  0
VPORT
  2
*Active
 70
0
 10
0.0
 20
0.0
 11
1.0
 21
1.0
 12
286.3055555555554861
 22
148.5
 13
0.0
 23
0.0
 14
10.0
 24
10.0
 15
10.0
 25
10.0
 16
0.0
 26
0.0
 36
1.0
 17
0.0
 27
0.0
 37
0.0
 40
297.0
 41
1.92798353909465
 42
50.0
 43
0.0
 44
0.0
 50
0.0
 51
0.0
 71
0
 72
100
 73
1
 74
3
 75
1
 76
1
 77
0
 78
0
  0
ENDTAB
  0
TABLE
  2
LTYPE
 70
19
  0
LTYPE
  2
CONTINUOUS
  3
Solid line
 72
65
 73
0
 40
0.0
  0
LTYPE
  2
DOT
  3
Dot . . . . . . . . . . . . . . . . . . . . . .
 72
65
 73
2
 40
6.3499999999999996
 49
0.0
 49
-6.3499999999999996
  0
LTYPE
  2
DOT2
  3
Dot (.5x) .....................................
 72
65
 73
2
 40
3.1749999999999998
 49
0.0
 49
-3.1749999999999998
  0
LTYPE
  2
DOTX2
  3
Dot (2x) .  .  .  .  .  .  .  .  .  .  .  .  .
 72
65
 73
2
 40
12.6999999999999993
 49
0.0
 49
-12.6999999999999993
  0
LTYPE
  2
DASHED
  3
Dashed __ __ __ __ __ __ __ __ __ __ __ __ __ _
 72
65
 73
2
 40
19.0500000000000007
 49
12.6999999999999993
 49
-6.3499999999999996
  0
LTYPE
  2
DASHED2
  3
Dashed (.5x) _ _ _ _ _ _ _ _ _ _ _ _ _ _ _ _ _
 72
65
 73
2
 40
9.5250000000000004
 49
6.3499999999999996
 49
-3.1749999999999998
  0
LTYPE
  2
DASHEDX2
  3
Dashed (2x) ____  ____  ____  ____  ____  ___
 72
65
 73
2
 40
38.1000000000000014
 49
25.3999999999999986
 49
-12.6999999999999993
  0
LTYPE
  2
DASHDOT
  3
Dash dot __ . __ . __ . __ . __ . __ . __ . __
 72
65
 73
4
 40
25.3999999999999986
 49
12.6999999999999993
 49
-6.3499999999999996
 49
0.0
 49
-6.3499999999999996
  0
LTYPE
  2
DASHDOT2
  3
Dash dot (.5x) _._._._._._._._._._._._._._._.
 72
65
 73
4
 40
12.6999999999999993
 49
6.3499999999999996
 49
-3.1749999999999998
 49
0.0
 49
-3.1749999999999998
  0
LTYPE
  2
DASHDOTX2
  3
Dash dot (2x) ____  .  ____  .  ____  .  ___
 72
65
 73
4
 40
50.7999999999999972
 49
25.3999999999999986
 49
-12.6999999999999993
 49
0.0
 49
-12.6999999999999993
  0
LTYPE
  2
DIVIDE
  3
Divide ____ . . ____ . . ____ . . ____ . . ____
 72
65
 73
6
 40
31.75
 49
12.6999999999999993
 49
-6.3499999999999996
 49
0.0
 49
-6.3499999999999996
 49
0.0
 49
-6.3499999999999996
  0
LTYPE
  2
DIVIDE2
  3
Divide (.5x) __..__..__..__..__..__..__..__.._
 72
65
 73
6
 40
15.875
 49
6.3499999999999996
 49
-3.1749999999999998
 49
0.0
 49
-3.1749999999999998
 49
0.0
 49
-3.1749999999999998
  0
LTYPE
  2
DIVIDEX2
  3
Divide (2x) ________  .  .  ________  .  .  _
 72
65
 73
6
 40
63.5
 49
25.3999999999999986
 49
-12.6999999999999993
 49
0.0
 49
-12.6999999999999993
 49
0.0
 49
-12.6999999999999993
  0
LTYPE
  2
CENTER
  3
Center ____ _ ____ _ ____ _ ____ _ ____ _ ____
 72
65
 73
4
 40
50.7999999999999972
 49
31.75
 49
-6.3499999999999996
 49
6.3499999999999996
 49
-6.3499999999999996
  0
LTYPE
  2
CENTER2
  3
Center (.5x) ___ _ ___ _ ___ _ ___ _ ___ _ ___
 72
65
 73
4
 40
28.5749999999999993
 49
19.0500000000000007
 49
-3.1749999999999998
 49
3.1749999999999998
 49
-3.1749999999999998
  0
LTYPE
  2
CENTERX2
  3
Center (2x) ________  __  ________  __  _____
 72
65
 73
4
 40
101.5999999999999943
 49
63.5
 49
-12.6999999999999993
 49
12.6999999999999993
 49
-12.6999999999999993
  0
LTYPE
  2
BORDER
  3
Border __ __ . __ __ . __ __ . __ __ . __ __ .
 72
65
 73
6
 40
44.4500000000000028
 49
12.6999999999999993
 49
-6.3499999999999996
 49
12.6999999999999993
 49
-6.3499999999999996
 49
0.0
 49
-6.3499999999999996
  0
LTYPE
  2
BORDER2
  3
Border (.5x) __.__.__.__.__.__.__.__.__.__.__.
 72
65
 73
6
 40
22.2250000000000014
 49
6.3499999999999996
 49
-3.1749999999999998
 49
6.3499999999999996
 49
-3.1749999999999998
 49
0.0
 49
-3.1749999999999998
  0
LTYPE
  2
BORDERX2
  3
Border (2x) ____  ____  .  ____  ____  .  ___
 72
65
 73
6
 40
88.9000000000000057
 49
25.3999999999999986
 49
-12.6999999999999993
 49
25.3999999999999986
 49
-12.6999999999999993
 49
0.0
 49
-12.6999999999999993
  0
ENDTAB
  0
TABLE
  2
LAYER
 70
1
  0
LAYER
  2
0
 70
0
 62
7
  6
CONTINUOUS
  0
ENDTAB
  0
TABLE
  2
STYLE
 70
1
  0
STYLE
  2
Standard
 70
0
 40
0.0
 41
1.0
 50
0.0
 71
0
 42
2.5
  3
txt
  4

  0
ENDTAB
  0
TABLE
  2
VIEW
 70
0
  0
ENDTAB
  0
TABLE
  2
UCS
 70
0
  0
ENDTAB
  0
TABLE
  2
APPID
 70
1
  0
APPID
  2
ACAD
 70
0
  0
ENDTAB
  0
TABLE
  2
DIMSTYLE
 70
1
  0
DIMSTYLE
  2
Standard
  3

  4

  5

  6

  7

 40
1.0
 41
2.5
 42
0.625
 43
3.75
 44
1.25
 45
0.0
 46
0.0
 47
0.0
 48
0.0
 70
0
 71
0
 72
0
 73
0
 74
0
 75
0
 76
0
 77
1
 78
8
140
2.5
141
2.5
142
0.0
143
0.03937007874016
144
1.0
145
0.0
146
1.0
147
0.625
170
0
171
3
172
1
173
0
174
0
175
0
176
0
177
0
178
0
  0
ENDTAB
  0
ENDSEC
  0
SECTION
  2
BLOCKS
  0
ENDSEC
  0
SECTION
  2
ENTITIES
  0
LINE
  8
0
 10
98.0
 20
42.5
 30
0.0
 11
98.0
 21
45.5
 31
0.0
  0
LINE
  8
0
 10
98.0
 20
45.5
 30
0.0
 11
90.8360264185009356
 21
45.5
 31
0.0
  0
LINE
  8
0
 10
90.8360264185009356
 20
45.5
 30
0.0
 11
89.6121383086225478
 21
42.5
 31
0.0
  0
LINE
  8
0
 10
89.6121383086225478
 20
42.5
 30
0.0
 11
98.0
 21
42.5
 31
0.0
  0
CIRCLE
  8
0
 10
90.5
 20
50.25
 30
0.0
 40
0.8
  0
CIRCLE
  8
0
 10
50.0
 20
50.0
 30
0.0
 40
0.4
  0
LINE
  8
0
 10
87.5523541910777112
 20
48.4941964849173317
 30
0.0
 11
51.0
 21
48.0132444560873566
 31
0.0
  0
LINE
  8
0
 10
51.0
 20
48.0132444560873566
 30
0.0
 11
51.0
 21
49.5417424305044136
 31
0.0
  0
ARC
  8
0
 10
50.0
 20
50.0
 30
0.0
 40
1.1000000000000001
 50
335.3800226713427719
 51
204.6199773286571997
  0
LINE
  8
0
 10
49.0
 20
49.5417424305044136
 30
0.0
 11
49.0
 21
47.0
 31
0.0
  0
ARC
  8
0
 10
50.0
 20
47.0
 30
0.0
 40
1.0
 50
180.0
 51
270.753848333070664
  0
LINE
  8
0
 10
50.0131567558702841
 20
46.0000865538583028
 30
0.0
 11
87.6655655134286746
 21
46.4955129848788076
 31
0.0
  0
ARC
  8
0
 10
87.6418833528621661
 20
48.2953571879338668
 30
0.0
 40
1.8
 50
270.7538483330706072
 51
317.7263109939063952
  0
LINE
  8
0
 10
88.9737754849748654
 20
47.0845461587405083
 30
0.0
 11
90.9316826737533859
 21
49.2382440663968737
 31
0.0
  0
ARC
  8
0
 10
90.5
 20
50.25
 30
0.0
 40
1.1000000000000001
 50
293.106333665248826
 51
162.3462883225636517
  0
LINE
  8
0
 10
89.4518025269615009
 20
50.5835896543894989
 30
0.0
 11
87.5523541910777112
 21
48.4941964849173317
 31
0.0
  0
CIRCLE
  8
0
 10
87.0
 20
50.25
 30
0.0
 40
0.8
  0
CIRCLE
  8
0
 10
53.0
 20
50.0
 30
0.0
 40
0.4
  0
ARC
  8
0
 10
53.0
 20
50.0
 30
0.0
 40
1.1000000000000001
 50
65.8013075755229977
 51
295.0412622328221346
  0
LINE
  8
0
 10
53.4655979243930162
 20
49.0033964816433567
 30
0.0
 11
86.5491075604337396
 21
49.2466575819083587
 31
0.0
  0
ARC
  8
0
 10
87.0
 20
50.25
 30
0.0
 40
1.1000000000000001
 50
245.801307575511828
 51
115.0412622328257868
  0
LINE
  8
0
 10
86.5344020756069057
 20
51.2466035183566433
 30
0.0
 11
53.4508924395660259
 21
51.0033424180916413
 31
0.0
  0
CIRCLE
  8
0
 10
87.0
 20
52.75
 30
0.0
 40
0.8
  0
CIRCLE
  8
0
 10
53.0
 20
53.0
 30
0.0
 40
0.4
  0
ARC
  8
0
 10
53.0
 20
53.0
 30
0.0
 40
1.1000000000000001
 50
64.9587377671742132
 51
294.1986924244769739
  0
LINE
  8
0
 10
53.4508924395660259
 20
51.9966575819083587
 30
0.0
 11
86.5344020756069057
 21
51.7533964816433567
 31
0.0
  0
ARC
  8
0
 10
87.0
 20
52.75
 30
0.0
 40
1.1000000000000001
 50
244.9587377671742274
 51
114.1986924244834256
  0
LINE
  8
0
 10
86.5491075604338391
 20
53.7533424180916413
 30
0.0
 11
53.4655979243930943
 21
53.9966035183566433
 31
0.0
  0
CIRCLE
  8
0
 10
90.5
 20
52.75
 30
0.0
 40
0.8
  0
CIRCLE
  8
0
 10
50.0
 20
53.0
 30
0.0
 40
0.4
  0
LINE
  8
0
 10
51.0
 20
54.9867555439126434
 30
0.0
 11
87.5523541910777112
 21
54.5058035150826683
 31
0.0
  0
LINE
  8
0
 10
87.5523541910777112
 20
54.5058035150826683
 30
0.0
 11
89.4518025269615009
 21
52.4164103456105011
 31
0.0
  0
ARC
  8
0
 10
90.5
 20
52.75
 30
0.0
 40
1.1000000000000001
 50
197.6537116774363483
 51
66.8936663347511313
  0
LINE
  8
0
 10
90.9316826737533859
 20
53.7617559336031192
 30
0.0
 11
88.9737754849748654
 21
55.9154538412594917
 31
0.0
  0
ARC
  8
0
 10
87.6418833528621661
 20
54.7046428120661332
 30
0.0
 40
1.8
 50
42.2736890060936332
 51
89.246151666929407
  0
LINE
  8
0
 10
87.6655655134286746
 20
56.5044870151211924
 30
0.0
 11
50.0131567558702841
 21
56.9999134461416972
 31
0.0
  0
ARC
  8
0
 10
50.0
 20
56.0
 30
0.0
 40
1.0
 50
89.2461516669293218
 51
180.0
  0
LINE
  8
0
 10
49.0
 20
56.0
 30
0.0
 11
49.0
 21
53.4582575694955864
 31
0.0
  0
ARC
  8
0
 10
50.0
 20
53.0
 30
0.0
 40
1.1000000000000001
 50
155.3800226713428003
 51
24.6199773286572139
  0
LINE
  8
0
 10
51.0
 20
53.4582575694955864
 30
0.0
 11
51.0
 21
54.9867555439126434
 31
0.0
  0
LINE
  8
0
 10
98.0
 20
42.5
 30
0.0
 11
98.0
 21
45.5
 31
0.0
  0
LINE
  8
0
 10
98.0
 20
45.5
 30
0.0
 11
90.8360264185009356
 21
45.5
 31
0.0
  0
LINE
  8
0
 10
90.8360264185009356
 20
45.5
 30
0.0
 11
89.6121383086225478
 21
42.5
 31
0.0
  0
LINE
  8
0
 10
89.6121383086225478
 20
42.5
 30
0.0
 11
98.0
 21
42.5
 31
0.0
  0
LINE
  8
0
 10
90.5
 20
55.5
 30
0.0
 11
93.0
 21
55.5
 31
0.0
  0
LINE
  8
0
 10
93.0
 20
55.5
 30
0.0
 11
93.0
 21
47.5
 31
0.0
  0
LINE
  8
0
 10
93.0
 20
47.5
 30
0.0
 11
90.5
 21
47.5
 31
0.0
  0
LINE
  8
0
 10
90.5
 20
47.5
 30
0.0
 11
90.5
 21
48.0
 31
0.0
  0
LINE
  8
0
 10
90.5
 20
48.0
 30
0.0
 11
92.5
 21
48.0
 31
0.0
  0
LINE
  8
0
 10
92.5
 20
48.0
 30
0.0
 11
92.5
 21
55.0
 31
0.0
  0
LINE
  8
0
 10
92.5
 20
55.0
 30
0.0
 11
90.5
 21
55.0
 31
0.0
  0
LINE
  8
0
 10
90.5
 20
55.0
 30
0.0
 11
90.5
 21
55.5
 31
0.0
  0
ARC
  8
0
 10
50.0
 20
56.0
 30
0.0
 40
1.8
 50
89.246151666929407
 51
180.0
  0
LINE
  8
0
 10
48.2000000000000028
 20
56.0
 30
0.0
 11
48.2000000000000028
 21
47.0
 31
0.0
  0
ARC
  8
0
 10
50.0
 20
47.0
 30
0.0
 40
1.8
 50
180.0
 51
270.7538483330707777
  0
LINE
  8
0
 10
50.0236821605665156
 20
45.2001557969449408
 30
0.0
 11
88.0236821605665511
 21
45.7001557969449408
 31
0.0
  0
ARC
  8
0
 10
88.0000000000000284
 20
47.5
 30
0.0
 40
1.8
 50
270.7538483330710619
 51
337.806372479672234
  0
LINE
  8
0
 10
89.6666426850755585
 20
46.8200719447734173
 30
0.0
 11
89.9710872393295347
 21
47.5663277956066111
 31
0.0
  0
ARC
  8
0
 10
91.6377299244050789
 20
46.8863997403800283
 30
0.0
 40
1.8
 50
113.1985905136481421
 51
157.806372479672433
  0
LINE
  8
0
 10
90.9286751869625789
 20
48.5408607944125308
 30
0.0
 11
90.9090547374425029
 21
48.5324520303325002
 31
0.0
  0
ARC
  8
0
 10
90.2000000000000028
 20
50.1869130843650026
 30
0.0
 40
1.8
 50
293.1985905136481279
 51
0.0
  0
LINE
  8
0
 10
92.0
 20
50.1869130843650026
 30
0.0
 11
92.0
 21
52.8130869156349974
 31
0.0
  0
ARC
  8
0
 10
90.2000000000000028
 20
52.8130869156349974
 30
0.0
 40
1.8
 50
0.0
 51
66.8014094863518437
  0
LINE
  8
0
 10
90.9090547374425029
 20
54.4675479696674998
 30
0.0
 11
90.9286751869625789
 21
54.4591392055874692
 31
0.0
  0
ARC
  8
0
 10
91.6377299244050789
 20
56.1136002596199717
 30
0.0
 40
1.8
 50
202.193627520327567
 51
246.8014094863518721
  0
LINE
  8
0
 10
89.9710872393295347
 20
55.4336722043933889
 30
0.0
 11
89.6666426850755585
 21
56.1799280552265827
 31
0.0
  0
ARC
  8
0
 10
88.0000000000000284
 20
55.5
 30
0.0
 40
1.8
 50
22.1936275203277447
 51
89.246151666929407
  0
LINE
  8
0
 10
88.0236821605665369
 20
57.2998442030550592
 30
0.0
 11
50.0236821605665085
 21
57.7998442030550592
 31
0.0
  0
LINE
  8
0
 10
98.0
 20
60.5
 30
0.0
 11
98.0
 21
46.0
 31
0.0
  0
LINE
  8
0
 10
98.0
 20
46.0
 30
0.0
 11
98.0
 21
60.5
 31
0.0
  0
LINE
  8
0
 10
98.0
 20
60.5
 30
0.0
 11
98.0
 21
46.0
 31
0.0
  0
LINE
  8
0
 10
98.0
 20
46.0
 30
0.0
 11
90.5
 21
46.0
 31
0.0
  0
LINE
  8
0
 10
90.5
 20
46.0
 30
0.0
 11
89.0721305384752213
 21
42.5
 31
0.0
  0
LINE
  8
0
 10
89.0721305384752213
 20
42.5
 30
0.0
 11
90.5
 21
46.0
 31
0.0
  0
LINE
  8
0
 10
90.5
 20
46.0
 30
0.0
 11
89.0721305384752213
 21
42.5
 31
0.0
  0
LINE
  8
0
 10
89.0721305384752213
 20
42.5
 30
0.0
 11
37.0
 21
42.5
 31
0.0
  0
LINE
  8
0
 10
37.0
 20
42.5
 30
0.0
 11
37.0
 21
60.5
 31
0.0
  0
LINE
  8
0
 10
37.0
 20
60.5
 30
0.0
 11
98.0
 21
60.5
 31
0.0
  0
LINE
  8
0
 10
48.0
 20
58.0
 30
0.0
 11
48.0
 21
57.0
 31
0.0
  0
LINE
  8
0
 10
48.0
 20
57.0
 30
0.0
 11
46.0
 21
57.0
 31
0.0
  0
LINE
  8
0
 10
46.0
 20
57.0
 30
0.0
 11
46.0
 21
58.0
 31
0.0
  0
LINE
  8
0
 10
46.0
 20
58.0
 30
0.0
 11
48.0
 21
58.0
 31
0.0
  0
LINE
  8
0
 10
48.0
 20
46.0
 30
0.0
 11
46.0
 21
46.0
 31
0.0
  0
LINE
  8
0
 10
46.0
 20
46.0
 30
0.0
 11
46.0
 21
45.0
 31
0.0
  0
LINE
  8
0
 10
46.0
 20
45.0
 30
0.0
 11
48.0
 21
45.0
 31
0.0
  0
LINE
  8
0
 10
48.0
 20
45.0
 30
0.0
 11
48.0
 21
46.0
 31
0.0
  0
LINE
  8
0
 10
90.5
 20
55.5
 30
0.0
 11
93.0
 21
55.5
 31
0.0
  0
LINE
  8
0
 10
93.0
 20
55.5
 30
0.0
 11
93.0
 21
47.5
 31
0.0
  0
LINE
  8
0
 10
93.0
 20
47.5
 30
0.0
 11
90.5
 21
47.5
 31
0.0
  0
LINE
  8
0
 10
90.5
 20
47.5
 30
0.0
 11
90.5
 21
48.0
 31
0.0
  0
LINE
  8
0
 10
90.5
 20
48.0
 30
0.0
 11
92.5
 21
48.0
 31
0.0
  0
LINE
  8
0
 10
92.5
 20
48.0
 30
0.0
 11
92.5
 21
55.0
 31
0.0
  0
LINE
  8
0
 10
92.5
 20
55.0
 30
0.0
 11
90.5
 21
55.0
 31
0.0
  0
LINE
  8
0
 10
90.5
 20
55.0
 30
0.0
 11
90.5
 21
55.5
 31
0.0
  0
CIRCLE
  8
0
 10
87.0
 20
52.75
 30
0.0
 40
0.8
  0
CIRCLE
  8
0
 10
90.5
 20
52.75
 30
0.0
 40
0.8
  0
CIRCLE
  8
0
 10
90.5
 20
50.25
 30
0.0
 40
0.8
  0
CIRCLE
  8
0
 10
87.0
 20
50.25
 30
0.0
 40
0.8
  0
CIRCLE
  8
0
 10
50.0
 20
53.0
 30
0.0
 40
0.4
  0
CIRCLE
  8
0
 10
53.0
 20
53.0
 30
0.0
 40
0.4
  0
CIRCLE
  8
0
 10
50.0
 20
50.0
 30
0.0
 40
0.4
  0
CIRCLE
  8
0
 10
53.0
 20
50.0
 30
0.0
 40
0.4
  0
LINE
  8
0
 10
87.5523541910777112
 20
48.4941964849173317
 30
0.0
 11
51.0
 21
48.0132444560873566
 31
0.0
  0
LINE
  8
0
 10
51.0
 20
54.9867555439126434
 30
0.0
 11
87.5523541910777112
 21
54.5058035150826683
 31
0.0
  0
ARC
  8
0
 10
50.0
 20
56.0
 30
0.0
 40
1.8
 50
89.246151666929407
 51
180.0
  0
LINE
  8
0
 10
48.2000000000000028
 20
56.0
 30
0.0
 11
48.2000000000000028
 21
47.0
 31
0.0
  0
ARC
  8
0
 10
50.0
 20
47.0
 30
0.0
 40
1.8
 50
180.0
 51
270.7538483330707777
  0
ARC
  8
0
 10
50.0
 20
56.0
 30
0.0
 40
1.0
 50
89.2461516669293218
 51
180.0
  0
ARC
  8
0
 10
50.0
 20
47.0
 30
0.0
 40
1.0
 50
180.0
 51
270.753848333070664
  0
LINE
  8
0
 10
87.6655655134286746
 20
46.4955129848788076
 30
0.0
 11
50.0131567558702841
 21
46.0000865538583028
 31
0.0
  0
ARC
  8
0
 10
87.6418833528621661
 20
48.2953571879338668
 30
0.0
 40
1.8
 50
270.7538483330706072
 51
317.7263109939063952
  0
LINE
  8
0
 10
87.6655655134286746
 20
56.5044870151211924
 30
0.0
 11
50.0131567558702841
 21
56.9999134461416972
 31
0.0
  0
ARC
  8
0
 10
87.6418833528621661
 20
54.7046428120661332
 30
0.0
 40
1.8
 50
42.2736890060936332
 51
89.246151666929407
  0
LINE
  8
0
 10
49.0
 20
53.4582575694955864
 30
0.0
 11
49.0
 21
56.0
 31
0.0
  0
LINE
  8
0
 10
49.0
 20
53.4582575694955864
 30
0.0
 11
49.0
 21
56.0
 31
0.0
  0
LINE
  8
0
 10
49.0
 20
53.4582575694955864
 30
0.0
 11
49.0
 21
56.0
 31
0.0
  0
LINE
  8
0
 10
49.0
 20
53.4582575694955864
 30
0.0
 11
49.0
 21
56.0
 31
0.0
  0
LINE
  8
0
 10
49.0
 20
49.5417424305044136
 30
0.0
 11
49.0
 21
47.0
 31
0.0
  0
ARC
  8
0
 10
50.0
 20
50.0
 30
0.0
 40
1.1000000000000001
 50
335.3800226713427719
 51
204.6199773286571997
  0
LINE
  8
0
 10
51.0
 20
49.5417424305044136
 30
0.0
 11
51.0
 21
48.0132444560873566
 31
0.0
  0
ARC
  8
0
 10
53.0
 20
50.0
 30
0.0
 40
1.1000000000000001
 50
65.8013075755229977
 51
295.0412622328221346
  0
LINE
  8
0
 10
51.0
 20
53.4582575694955864
 30
0.0
 11
51.0
 21
54.9867555439126434
 31
0.0
  0
ARC
  8
0
 10
53.0
 20
53.0
 30
0.0
 40
1.1000000000000001
 50
64.9587377671742132
 51
294.1986924244769739
  0
ARC
  8
0
 10
50.0
 20
53.0
 30
0.0
 40
1.1000000000000001
 50
155.3800226713428003
 51
24.6199773286572139
  0
LINE
  8
0
 10
49.0
 20
53.4582575694955864
 30
0.0
 11
49.0
 21
56.0
 31
0.0
  0
LINE
  8
0
 10
86.5344020756069057
 20
51.7533964816433567
 30
0.0
 11
53.4508924395660259
 21
51.9966575819083587
 31
0.0
  0
ARC
  8
0
 10
87.0
 20
52.75
 30
0.0
 40
1.1000000000000001
 50
244.9587377671742274
 51
114.1986924244834256
  0
LINE
  8
0
 10
53.4655979243930943
 20
53.9966035183566433
 30
0.0
 11
86.5491075604338391
 21
53.7533424180916413
 31
0.0
  0
LINE
  8
0
 10
86.5491075604337396
 20
49.2466575819083587
 30
0.0
 11
53.4655979243930162
 21
49.0033964816433567
 31
0.0
  0
LINE
  8
0
 10
86.5344020756069057
 20
51.2466035183566433
 30
0.0
 11
53.4508924395660259
 21
51.0033424180916413
 31
0.0
  0
ARC
  8
0
 10
87.0
 20
50.25
 30
0.0
 40
1.1000000000000001
 50
245.801307575511828
 51
115.0412622328257868
  0
LINE
  8
0
 10
90.9316826737533859
 20
49.2382440663968737
 30
0.0
 11
88.9737754849748654
 21
47.0845461587405083
 31
0.0
  0
LINE
  8
0
 10
89.4518025269615009
 20
50.5835896543894989
 30
0.0
 11
87.5523541910777112
 21
48.4941964849173317
 31
0.0
  0
ARC
  8
0
 10
90.5
 20
50.25
 30
0.0
 40
1.1000000000000001
 50
293.106333665248826
 51
162.3462883225636517
  0
ARC
  8
0
 10
91.6377299244050789
 20
46.8863997403800283
 30
0.0
 40
1.8
 50
113.1985905136481563
 51
157.806372479672433
  0
ARC
  8
0
 10
91.6377299244050789
 20
56.1136002596199717
 30
0.0
 40
1.8
 50
202.193627520327567
 51
246.8014094863518721
  0
LINE
  8
0
 10
89.6666426850755585
 20
56.1799280552265827
 30
0.0
 11
89.9710872393295347
 21
55.4336722043933889
 31
0.0
  0
LINE
  8
0
 10
88.0236821605665369
 20
57.2998442030550592
 30
0.0
 11
50.0236821605665085
 21
57.7998442030550592
 31
0.0
  0
ARC
  8
0
 10
88.0000000000000284
 20
55.5
 30
0.0
 40
1.8
 50
22.1936275203277447
 51
89.246151666929407
  0
LINE
  8
0
 10
89.6666426850755585
 20
46.8200719447734173
 30
0.0
 11
89.9710872393295347
 21
47.5663277956066111
 31
0.0
  0
LINE
  8
0
 10
50.0236821605665156
 20
45.2001557969449408
 30
0.0
 11
88.0236821605665511
 21
45.7001557969449408
 31
0.0
  0
ARC
  8
0
 10
88.0000000000000284
 20
47.5
 30
0.0
 40
1.8
 50
270.7538483330710619
 51
337.806372479672234
  0
LINE
  8
0
 10
90.9090547374425029
 20
54.4675479696674998
 30
0.0
 11
90.9286751869625789
 21
54.4591392055874692
 31
0.0
  0
ARC
  8
0
 10
90.2000000000000028
 20
52.8130869156349974
 30
0.0
 40
1.8
 50
0.0
 51
66.8014094863518437
  0
LINE
  8
0
 10
92.0
 20
50.1869130843650026
 30
0.0
 11
92.0
 21
52.8130869156349974
 31
0.0
  0
LINE
  8
0
 10
90.9286751869625789
 20
48.5408607944125308
 30
0.0
 11
90.9090547374425029
 21
48.5324520303325002
 31
0.0
  0
ARC
  8
0
 10
90.2000000000000028
 20
50.1869130843650026
 30
0.0
 40
1.8
 50
293.1985905136481279
 51
0.0
  0
LINE
  8
0
 10
89.4518025269615009
 20
52.4164103456105011
 30
0.0
 11
87.5523541910777112
 21
54.5058035150826683
 31
0.0
  0
ARC
  8
0
 10
90.5
 20
52.75
 30
0.0
 40
1.1000000000000001
 50
197.6537116774363483
 51
66.8936663347511313
  0
LINE
  8
0
 10
98.0
 20
60.5
 30
0.0
 11
98.0
 21
46.0
 31
0.0
  0
LINE
  8
0
 10
98.0
 20
60.5
 30
0.0
 11
98.0
 21
46.0
 31
0.0
  0
LINE
  8
0
 10
98.0
 20
60.5
 30
0.0
 11
98.0
 21
46.0
 31
0.0
  0
LINE
  8
0
 10
37.0
 20
60.5
 30
0.0
 11
98.0
 21
60.5
 31
0.0
  0
LINE
  8
0
 10
48.0
 20
58.0
 30
0.0
 11
48.0
 21
57.0
 31
0.0
  0
LINE
  8
0
 10
48.0
 20
57.0
 30
0.0
 11
46.0
 21
57.0
 31
0.0
  0
LINE
  8
0
 10
46.0
 20
58.0
 30
0.0
 11
48.0
 21
58.0
 31
0.0
  0
LINE
  8
0
 10
46.0
 20
57.0
 30
0.0
 11
46.0
 21
58.0
 31
0.0
  0
LINE
  8
0
 10
48.0
 20
46.0
 30
0.0
 11
46.0
 21
46.0
 31
0.0
  0
LINE
  8
0
 10
46.0
 20
46.0
 30
0.0
 11
46.0
 21
45.0
 31
0.0
  0
LINE
  8
0
 10
48.0
 20
45.0
 30
0.0
 11
48.0
 21
46.0
 31
0.0
  0
LINE
  8
0
 10
46.0
 20
45.0
 30
0.0
 11
48.0
 21
45.0
 31
0.0
  0
LINE
  8
0
 10
90.9316826737533859
 20
53.7617559336031192
 30
0.0
 11
88.9737754849748654
 21
55.9154538412594917
 31
0.0
  0
ARC
  8
0
 10
90.5
 20
52.75
 30
0.0
 40
1.1000000000000001
 50
197.6537116774363483
 51
66.893666334750975
  0
LINE
  8
0
 10
98.0
 20
42.5
 30
0.0
 11
98.0
 21
45.5
 31
0.0
  0
LINE
  8
0
 10
98.0
 20
42.5
 30
0.0
 11
89.6121383086225478
 21
42.5
 31
0.0
  0
LINE
  8
0
 10
89.6121383086225478
 20
42.5
 30
0.0
 11
90.8360264185009356
 21
45.5
 31
0.0
  0
LINE
  8
0
 10
90.8360264185009356
 20
45.5
 30
0.0
 11
98.0
 21
45.5
 31
0.0
  0
LINE
  8
0
 10
37.0
 20
42.5
 30
0.0
 11
37.0
 21
60.5
 31
0.0
  0
LINE
  8
0
 10
89.0721305384752213
 20
42.5
 30
0.0
 11
90.5
 21
46.0
 31
0.0
  0
LINE
  8
0
 10
37.0
 20
42.5
 30
0.0
 11
89.0721305384752213
 21
42.5
 31
0.0
  0
LINE
  8
0
 10
89.0721305384752213
 20
42.5
 30
0.0
 11
90.5
 21
46.0
 31
0.0
  0
LINE
  8
0
 10
89.0721305384752213
 20
42.5
 30
0.0
 11
90.5
 21
46.0
 31
0.0
  0
LINE
  8
0
 10
89.0721305384752213
 20
42.5
 30
0.0
 11
90.5
 21
46.0
 31
0.0
  0
LINE
  8
0
 10
98.0
 20
46.0
 30
0.0
 11
90.5
 21
46.0
 31
0.0
  0
ENDSEC
  0
EOF
